Pantera - Floods Chords & Tabs

 

Floods Chords & Tabs

Pantera Chords & Tabs

Version: 1 Type: Bass Tab 0 ratings
1 star 2 stars 3 stars 4 stars 5 stars
comments

Floods Bass Tab

   
Song:       Floods
Artist:     Pantera
Album:      The Great Southern Trendkill

Tabbed by:  The Banshee God

tune down 1 1/2 steps (C#,F#,B,E)

||-------------------------------------|--------------------------------||
||--/11--/11--10----/11--/11--10----10-|-/11--/11--10-------------------||
||--------------------------------11---|--------------------------------||
||-------------------------------------|-----------------0-4-4--3-3--0--||

||--------------------------9--------13----------|------9-----------------------
||-/11--/11--10----10--/11---11--10-----10----10-|-/11---11--10--10-10-10---10--
||---------------11-------------------------11---|------------------------11----
||-----------------------------------------------|------------------------------

-------9---------------|-------------------------------------5---|----------------
--/11---11--10--10-----|-----2----------------------2------------|----2-----------
-------------------11\-|-/4---4--3----------2-3--4---4--3--3---3-|-4---4--3--3----
-----------------------|------------0-2-3-4----------------------|----------------

----------------|--------------------------------------/9------|
----------------|---------------------------2------6-----10----|
----------------|-/4-----3----------2-3--4---4--3----3-----11\-|
--0--/4--3--0---|-----------0-2-3-4----------------------------|

|-----------------|---------------------------------|---------------
|-----2------6----|---------------------------------|---------------
|-/4---4--3-----3-|---------------------------------|---------8-----
|-----------------|-0--/4-4--3--0---0-/4-4-4-3--3-0-|--9--9-9---5---

---------------|---------------------------|---------------------------|
---------------|---------------------------|---------------------------|
---------------|---------8-----------------|---------8-----------------|
--(5)--8-8-7-5-|--9--9-9---5--(5)--8-8-7-5-|--9--9-9---5--(5)--8-8-7-5-|

|-----------||
|-----------||
|-7-7-7\----||
|---------2-||

||--------------------------9--------13----------|------9-----------------------
||-/11--/11--10----10--/11---11--10-----10----10-|-/11---11--10--10-10-10---10--
||---------------11-------------------------11---|------------------------11----
||-----------------------------------------------|------------------------------

-------9---------------|-------------------------------------5---|----------------
--/11---11--10--10-----|-----2----------------------2------------|----2-----------
-------------------11\-|-/4---4--3----------2-3--4---4--3--3---3-|-4---4--3--3----
-----------------------|------------0-2-3-4----------------------|----------------

----------------|--------------------------------------/9------|
----------------|---------------------------2------6-----10----|
----------------|-/4-----3----------2-3--4---4--3----3-----11\-|
--0--/4--3--0---|-----------0-2-3-4----------------------------|

|-----------------|---------------------------------|---------------
|-----2------6----|---------------------------------|---------------
|-/4---4--3-----3-|---------------------------------|---------8-----
|-----------------|-0--/4-4--3--0---0-/4-4-4-3--3-0-|--9--9-9---5---

---------------|---------------------------|---------------------------|
---------------|---------------------------|---------------------------|
---------------|---------8-----------------|---------8-----------------|
--(5)--8-8-7-5-|--9--9-9---5--(5)--8-8-7-5-|--9--9-9---5--(5)--8-8-7-5-|

|--------------------------|---------------------------|
|--------------7/8---------|---------------------------|
|-7-7-7\-----------9-7-----|---------8-----------------|
|---------2-/----------7-8-|--9--9-9---5--(5)--8-8-7-5-|

|---------------------------|---------------------------|
|---------------------------|---------------------------|
|---------8-----------------|---------8-----------------|
|--9--9-9---5--(5)--8-8-7-5-|--9--9-9---5--(5)--8-8-7-5-|
[ Tab from: http://www.guitartabs.cc/tabs/p/pantera/floods_btab.html ]
|----------------------------11----|--------------------|
|----------------4--------11----11-|-11\-----4---2-1----|
|-7-7-7\-------4---4--4/9----------|-------4---4-----2--|
|--------2---2---------------------|-----2--------------|

|--------------------------------------||
|--------------------------------------||
|--------------------------------------||
|-0--/4-4-4-3-3-3-0---0-/4-4-4-3-3-3-0-||

||----------------------------------------------|
||o---------------------------------------------|
||o---------------------------------------------|
||--2/3\2-2/3\2-2/3\2-2/3\2-2/3\2-2/3\2/3\2/6\0-|

 1.--------------------------------------------
|----------------------------------------------||
|---------------------------------------------o||
|---------------------------------------------o||
|-0h1p0-0h1p0-0h1p0-0h1p0-0h1p0-0h1p0h1p0/4\0--||

 2.----------------------------------
|-------------------------------------|
|-------------------------------------|
|-------------------------------------|
|-0h1p0-0h1p0-0h1p0-0h1p0-0h1p0-0h1p0-|

||-------------------||
||-------------------||
||-------------------||
||-1-2-3-3---1-2-3-2-||

(Guitar and rain effects)

||--------------------------|---------------------------|----------------
||------------2-------------|---------------------------|----------------
||-4-4-4-2-4----4-2-4-------|---------------------------|----------------
||--------------------0-2-4-|-5-5--5-5-5---5-5-5-5--0h1-|-2--0-1-2-4-2---

-----------------|------------------------------------|-----------------
-----------------|--------4-----------/10-10-10-10-10-|-----------------
---------0-------|-2--2-2-2--2-3--3-3-----------------|-4-2-4-----------
---0-1-2---2p0-2-|------------------------------------|-------0-2-3-4---

--------------------------|------------------------------|------------------
---2---2-4-2-4-4p2-4-2----|------------------------------|------------------
-----4--------------------|-0--0-0-0-0-0--0-0-0-0-0------|---------0--------
--------------------------|--------------------------0-1-|2--0-1-2---2-0-2--

---------------|--------------------5-5-5-|------------4-6-6--6-----------|
---------------|--------4-----------5-5-5-|---2---2-/6----------6-2-------|
-------0-------|-2--2-2-2--2-3--3-3-3-3-3-|-4---4-------------------4-2-4-|
-0-1-2---2p0-2-|--------------------------|-------------------------------|

|------------------------------------|----------------------------------|
|------------------------------------|----------------------------------|
|------------------------------------|----------0---------------0-------|
|-5--5-5-5-5-5-5-2-4-5-5-5-5-5-5-0-1-|-2--0-1-2---2-2-2---0-1-2---2-0-2-|

|-------------------------|------------4-4-6--4h6-4-----------|
|--------------/10-10-10\-|---2---2-/6--------------6-2-------|
|-2--2-2-2---3------------|-4---4-----------------------4-2-4-|
|-------------------------|-----------------------------------|

|----------------------------|----------------------------------|
|----------------------------|----------------------------------|
|----------------------------|--------------------------0-------|
|-5--5-5-5-5-5-5-5-5-5-5-0-1-|-2--0-1-2-2-2-0-2---0-1-2---2-0-2-|

|-------4--4-4------4-5--|-(5)-----------------||
|-------4--4-4------4-5--|-(5)-----------------||
|-2--2---------0--0---3--|-(3)-----------------||
|------------------------|-----------------9\--||

||----------------------------------------------|
||o---------------------------------------------|
||o---------------------------------------------|
||--2/3\2-2/3\2-2/3\2-2/3\2-2/3\2-2/3\2/3\2/6\0-|

 1.--------------------------------------------
|----------------------------------------------||
|---------------------------------------------o||
|---------------------------------------------o||
|-0h1p0-0h1p0-0h1p0-0h1p0-0h1p0-0h1p0h1p0/4\0--||

 2.----------------------------------
|-------------------------------------|
|-------------------------------------|
|-------------------------------------|
|-0h1p0-0h1p0-0h1p0-0h1p0-0h1p0-0h1p0-|

                    x10
||---------------------|-------||
||o-------------------o|-------||
||o-------------------o|-------||
||--1-2-3-3---1-2-3-2--|--(2)--||

(guitar)

Comments