Pantera - Drag The Waters Chords & Tabs

 

Drag The Waters Chords & Tabs

Pantera Chords & Tabs

Version: 1 Type: Bass Tab 0 ratings
1 star 2 stars 3 stars 4 stars 5 stars
comments

Drag The Waters Bass Tab

Band- Pantera
Song- Drag The Waters

Tuning: E A D G down one and one half steps

^(#)  -----  bend string to that note
p     -----  pull-off
x     -----  strum(listen to it in the song)
/     -----  slide
~     -----  tremolo


This is a great song. It sounds like 95% right, so if you have any
corrections, feel free to e mail or AIM me. AIM-H3AVY ST33L45

Intro
--------------------------------------------------------------------|
----------------------------------------------7^(8)--5-7p5----------|
-----------------------------------------------------------7--------|
--1p0--0-1p0--0-1p0--0-1p0--0-1p0--0-1p0--0-0----------------5^(6)--|

chorus  "drag the waters some more..."
------------------------------------------|
--------------------7^(8)--5-7p5----------|
---------------------------------7--------|
--0-1p0--0-1p0--0-0----------------5^(6)--|

verse  "a smack on the wrist..."
-------x-xxx-xxx-xxx-xxx-xxx---------------------|
-------x-xxx-xxx-xxx-xxx-xxx---------------------|
-------x-xxx-xxx-xxx-xxx-xxx-----5~------8~------|
--1p0--x-xxx-xxx-xxx-xxx-xxx—0/7-----7/9----8p7--|
[ Tab from: http://www.guitartabs.cc/tabs/p/pantera/drag_the_waters_btab.html ]
chorus break  "like never be - FORE!!!..."
-------------------------------------------|
-------------------------------------------|
----------1-------3/5---------1-------3-3--|
--0/3~--3---3-3-3------0/3~-3---3-3-3------|

-------------------------------------------|
-------------------------------------------|
----------1-------3/5---------1-------5-1--|
--0/3~--3---3-3-3------0/3~-3---3-3-3------|

-------------------------------------------|
-------------------------------------------|
----------3-------5/7---------3-------7-3--|
--0/5~--5---5-5-5------0/5~-5---5-5-5------|

---------------------------------------	---------|
---------------------------------------	---------|
----------3-------5/7---------3--------	--6-7-8--|
--0/5~--5---5-5-5------0/5~-5---5-5-5--	---------|
					this part goes back
					into the chorus

breakdown
---------------------------------------------|
--------------------7^(8)-7-5-7p5---5--------|
----------------------------------7----------|
--1p0---1p0---1p0---------------------5^(6)--|

----------------------------------|
----------------------------------|
--5/7-7-5---5----7--5-------------|
---------7---7--------7-6-5-4-3---|
Comments