Pantera - Domination Chords & Tabs

 

Domination Chords & Tabs

Pantera Chords & Tabs

Version: 1 Type: Bass Tab 0 ratings
1 star 2 stars 3 stars 4 stars 5 stars
comments

Domination Bass Tab

   
I just finished tabbing this for a friend, and I figured I'd post it since I
don't belive a bass tab exists for this song on the net.

Author/Artist: Pantera
Title: Domination (bass)
Album: CFH
Transcribed by: Brian Van Maurik
Email: bmvst7@pitt.edu

standard tuning.

* indicates where gutar lets a chord ring.

-|----------------------------------|------------|------------|---------------
-|----------------------------------|------------|------------|---------------
-|----------------------------------|------------|------------|---------------
-|----------------------------------|------------|------------|---------------
-|------7-5-7------7-5-7------7-5-7-|------------|------------|---------------
-|-0--0-------0--0-------0--0-------|-0--0-3-5-3-|-0--0-5-6-3-|---------------
   intro A                            end one      end two                    

-|-------------------------------|-----------|-----------|--------------------
-|-------------------------------|-----------|-----------|--------------------
-|-------------------------------|-----------|-----------|--------------------
-|-------------------------------|-----------|-----------|--------------------
-|-----7-5-7-----7-5-7-----7-5-7-|-----------|-----------|--------------------
-|-000-------000-------000-------|-000-3-5-3-|-000-5-6-3-|--------------------
   intro B                         end one     end two                        

-|----------------------------------|------------|------------|---------------
-|----------------------------------|------------|------------|---------------
-|----------------------------------|------------|------------|---------------
-|----------------------------------|------------|------------|---------------
-|------7-5-7------7-5-7------7-5-7-|------------|------------|---------------
-|-0--0-------0--0-------0--0-------|-0--0-3-5-3-|-0--0-5-6-3-|---------------
   intro C ( same as A except tempo)  end one      end two                    

-|-------------------------------|-----------|----------------|---------------
-|-------------------------------|-----------|----------------|---------------
-|-------------------------------|-----------|----------------|---------------
-|-------------------------------|-----------|----------------|---------------
-|-----7-5-7-----7-5-7-----7-5-7-|-----------|-222-333-444-5\-|---------------
-|-000-------000-------000-------|-000-3-5-3-|----------------|---------------
   intro D (same as B excpet end two)  one     end two                        

-|----------------------------|------------------|---------------------|------
-|----------------------------|------------------|---------------------|------
-|----------------------------|------------------|---------------------|------
-|----------------------------|------------------|---------------------|------
-|----------------------------|-22-11-000--------|--------------1----1-|------
-|-00000----00000----00000----|-----------33-2-1-|-0000-0000-00---00---|------
   verse                        end one            end  two                   

-|--------------|------------|----------------------------|-----------------|-
-|-*------------|-*------*---|----------------------------|-----------------|-
-|--------------|------------|----------------------------|-----------------|-
-|--------------|------------|----------------------------|-----------------|-
-|-3----3-------|----2-1-0---|----------------------------|-22-11-000-------|-
-|--------0-1-2-|-3----------|-00000----00000----00000----|-----------33-21-|-
   pre-chorus                       rest     rest     rest                    

-|--------------|------------|----------------------------|------------|------
-|-*------------|-*------*---|----------------------------|------------|------
-|--------------|------------|----------------------------|------------|------
-|--------------|------------|----------------------------|----------0-|------
-|-3----3-------|------------|----------------------------|----0-2-3---|------
-|--------0-1-2-|-3--3-2-1---|-00000----00000----00000----|0-3---------|------
                                    rest     rest     rest                    

-|--------------------------------------------------|---|---------------------
-|--------------------------------------------------|---|---------------------
-|--------------------------------------------------|---|---------------------
-|--------------------------------------------------|---|---------------------
-|--------------------------------------------------|---|---------\-----------
-|--------------------------------------------------|-5-|---------\-----------
   chorus (use intro C and D but end with an A)       A let ring              
[ Tab from: http://www.guitartabs.cc/tabs/p/pantera/domination_btab.html ]
-|--------------------------------------------|-------------------------------
-|--------------------------------------------|-------------------------------
-|--------------------------------------------|-------------------------------
-|--------------------------------------------|-------------------------------
-|------7----------7----------7----------7----|------7-----7-7\---------------
-|-0000---00--0000---00--0000---00--0000---00-|-0000---00---------------------
   interlude (BEFORE guitar lets chords ring)   last time do this             

-|--------------|--------------|----------------------------|-----------------
-|-*------------|-*------------|-*--------------------------|-----------------
-|--------------|--------------|----------------------------|-----------------
-|--------------|--------------|----------------------------|-----------------
-|------7-------|-57---7-------|-57---7-----57---7----7-7---|-----------------
-|-0000---00----|---00---00----|---00---00----00---00-----7-|-----------------
   G5             F5             E5                                           

-|-------------|--------------|--------------|--------------|-----------------
-|-*-----------|-*------------|-*------------|--------------|-----------------
-|-------------|--------------|--------------|--------------|-----------------
-|-------------|--------------|--------------|--------------|-----------------
-|-----7-------|-57---7-------|-57---7-------|-7----77-7----|-----------------
-|-0-0---00----|---00---00----|---00---00----|---0-------00-|-----------------
   G5            F5             D5             harmonic squeal                

-|--------------|---------------------|---------------------------------------
-|--------------|---------------------|---------------------------------------
-|--------------|---------------------|---------------------------------------
-|--------------|---------------------|---------------------------------------
-|-57---7-------|-57---7------------5-|---------------------------------------
-|---00---00----|---00---00-0-0-5-7---|---------------------------------------
   solo rhythm one                                                            

-|-------------|-------------|---------------------|-----------|----------|---
-|-*-----------|-*------*----|---------------------|-----------|----------|---
-|-------------|-------------|---------------------|-----------|----------|---
-|-------------|-------------|---------------------|-----------|---7-8-9--|---
-|-3---3-------|----0-1-0--0-|-57---7------------5-|-57---7----|-7--------|---
-|-------0-1-2-|-3-----------|---00---00-0-0-5-7---|---00---00-|----------|---
   solo rhythm two (imagine combining prechorus and solo rhythm one)  end     

-|-------------|-------------|------------------------------------------------
-|-*-----------|-*------*----|------------------------------------------------
-|-------------|-------------|------------------------------------------------
-|-------------|-------------|------------------------------------------------
-|-3---3-------|-------------|------------------------------------------------
-|-------0-1-2-|-3--3-2-1--1-|------------------------------------------------
                                                                              

-|-----------------|-----------------|-----------------|-----------|----------
-|-----------------|-----------------|-----------------|-----------|----------
-|-----------------|-----------------|-----------------|-----------|----------
-|-----------------|-----------------|-----------------|-----------|----------
-|-3-3-3-3-3-3-3-3-|-4-4-4-4-4-4-4-4-|-5-5-5-5-5-5-5-5-|-6666-6666-|----------
-|-----------------|-----------------|-----------------|-----------|----------
   ascending part with ridculous solo                                         

-|---------------------|------------------------------------------------------
-|---------------------|------------------------------------------------------
-|---------------------|------------------------------------------------------
-|---------------------|------------------------------------------------------
-|---------------------|------------------------------------------------------
-|-11-1-11-1-11-1-11-1-|------------------------------------------------------
   heavy part                                                                 

-|---------------------|---------------------|--------------------------------
-|---------------------|---------------------|--------------------------------
-|---------------------|---------------------|--------------------------------
-|---------------------|---------------------|--------------------------------
-|---------------------|---------------------|--------------------------------
-|-2222-2222-2222-2222-|-11-1-11-1-11-1-11-1-|--------------------------------
   after tapping solos                                                        

-|----------------------|---------------------|-------------------------------
-|----------------------|---------------------|-------------------------------
-|----------------------|---------------------|-------------------------------
-|----------------------|---------------------|-------------------------------
-|----------------------|---------------------|-------------------------------
-|-2222-2222-2222-222/3-|-11-1-11-1-11-1-11-1-|-------------------------------
Comments