Pantera - Cowboys From Hell Chords & Tabs

 

Cowboys From Hell Chords & Tabs

Pantera Chords & Tabs

Version: 5 Type: Tab 0 ratings
1 star 2 stars 3 stars 4 stars 5 stars
comments

Cowboys From Hell Tab

1/--------------------------------|------------------------
2/--------------------------------|-----------------------
3/-------------------------------7|-----------------------
4/---5---5--7-5-7-5-8-5-7-5-7s9---|--5---5--7-5-7-5-8-7-5-
5/-7---7--------------------------|7---7------------------7
6/--------------------------------|-----------------------
[ Tab from: http://www.guitartabs.cc/tabs/p/pantera/cowboys_from_hell_tab_ver_5.html ]
1/------------------------------------------------------|
2/------------------------------------------------------|
3/------------------------------------------------------|
4/------------------------------------------------------|
5/-----------------------------5------------------------|
6/-0-3-0-3-5-3-5-3-6-3-5-3-5s7---0-3-0-3-5-3-5-3-6-5-3-0|

1/----------------------------------------------------------------------------------------------
2/----------------------------------------------------------------------------------------------
3/----------------------------------------------------------------------------------------------
4/------------------0--------------------0--------------------0---------------------------------
5/------------0-1-2---------------0-1-2----------------0-1-2---------------0-1-0------0-1-0-----
6/-0-0-0-0-0-----------0-0-0-0-0------------0-0-0-0-0------------0-0-0-0-0--------3-3--------3-0
There you have it, Pantera!!


Azgar69
Comments