Pantera - Cowboys From Hell Chords & Tabs

 

Cowboys From Hell Chords & Tabs

Pantera Chords & Tabs

Version: 3 Type: Tab 4 ratings
1 star 2 stars 3 stars 4 stars 5 stars
comments

Cowboys From Hell Tab

Pantera - Cowboys From Hell (tabbed by radio4)

|-------------------------------|-------------------------------|
|-------------------------------|-------------------------------|
|-------------------------------|-------------------------------|  
|-------------------------------|-------------------------------|  
|-------------------------------|-------------------------------|
|-0-0-0-0-0-0-0-0-0-0-0-0-0-0-0-|0-0-0-0-0-0-0-0-0-0-0-0-0-0-0-0| 

|-------------------------------|-------------------------------|
|-------------------------------|-------------------------------|
|-----------------------------8-|-----------------------------8-|
|---5---5-7-5-7-5-8-5-7-5-7-9---|---5---5-7-5-7-5-8-5-7-5-7-9---|
|-7---7-------------------------|-7---7-------------------------|
|-------------------------------|-------------------------------|
pm...............................................................
|-------------------------------|-------------------------------|
|-------------------------------|-------------------------------|
|-----------------------------8-|-------------------------------|
|---5---5-7-5-7-5-8-5-7-5-7-9---|---5---5-7-5-7-5-8-7-5---------|
|-7---7-------------------------|-7---7-----------------7////---|
|-------------------------------|-------------------------------|
.................................................
|-------------------------------|-------------------------------|
|-------------------------------|-------------------------------|
|-------------------------------|-------------------------------|
|-------------------------------|-------------------------------|
|-----------------------------5-|-----------------------------5-|
|-0-3-0-3-5-3-5-3-6-3-5-3-5-7---|-0-3-0-3-5-3-5-3-6-3-5-3-5-7---|
.................                 ...............
|-------------------------------|-------------------------------|
|-------------------------------|-------------------------------|
|-------------------------------|-------------------------------|
|-------------------------------|-------------------------------|
|-----------------------------5-|-------------------------------|
|-0-3-0-3-5-3-5-3-6-3-5-3-5-7---|-0-3-0-3-5-3-5-3-6-5-3-0-------|
.................                 ...............
|-------------------------------|-------------------------------|
|-------------------------------|-------------------------------|
|-------------------------------|-------------------------------|
|-------------------------------|-------------------------------|
|-----------------------------5-|-----------------------------5-|
|-0-3-0-3-5-3-5-3-6-3-5-3-5-7---|-0-3-0-3-5-3-5-3-6-3-5-3-5-7---|
.................                 ...............
|-------------------------------|-------------------------------|
|-------------------------------|-------------------------------|
|-------------------------------|-------------------------------|
|-------------------------------|-------------------------------|
|-----------------------------5-|-------------------------------|
|-0-3-0-3-5-3-5-3-6-3-5-3-5-7---|-0-3-0-3-5-3-5-3-6-5-3-0-------|
  ...............                 ...............
|-----------------------|-----------------------|
|-----------------------|-----------------------|
|-----------------------|-----------------------|
|---------------------0-|---------------------0-|
|---------------0h1h2---|---------------0h1h2---|
|-0-0-0-0-0-0-0---------|-0-0-0-0-0-0-0---------|
pm…………………………………		  …………………………………
|-----------------------|------------------------|
|-----------------------|------------------------|
|-----------------------|------------------------|
|---------------------0-|----------------0-----0-|
|---------------0h1h2---|-----------0h1h2-0h1h2--|
|-0-0-0-0-0-0-0---------|-0-0-0-0-0--------------|
  …………………………………           ………………………
|-----------------------|----------------------------|
|-----------------------|----------------------------|
|-----------------------|----------------------------|
|---------------------0-|----------------------------|
|---------------0h1h2---|-----------0h1p0---0h1p0----|
|-0-0-0-0-0-0-0---------|-0-0-0-0-0------3-3-----3-1-|
  …………………………………           .........                        
|-----------------------|----------------------------|
|-----------------------|----------------------------|
|-----------------------|----------------------------|
|---------------------0-|----------------------------|
|---------------0h1h2---|-----------0h1p0---0h1p0----|
|-0-0-0-0-0-0-0---------|-0-0-0-0-0------3-3-----3-3-|
...............           .........
|-----------------------|--------------------------|
|-----------------------|--------------------------|
|-----------------------|--------------------------|
|-----------------------|-----------------0--------|
|-----------------------|-----------0h1h2----------|
|-0-0-0-0-0-0-0-0-0-0-0-|-0-0-0-0-0----------------|
  ................................. 
|-----------------------|----------------------------|
|-----------------------|----------------------------|
|-----------------------|----------------------------|
|-----------------------|----------------------------|
|-----------------------|--------0h1p0-----0h1p0-----|
|-0-0-0-0-0-0-0-0-0-0-0-|-0-0-0--------3-3-------3-1-|
............................... 
|-----------------------|--------------------------|
|-----------------------|--------------------------|
|-----------------------|--------------------------|
|-----------------------|-----------------0--------|
|-----------------------|-----------0h1h2----------|
|-0-0-0-0-0-0-0-0-0-0-0-|-0-0-0-0-0----------------|
...................................
|-----------------------|----------------------------|
|-----------------------|----------------------------|
|-----------------------|----------------------------|
|-----------------------|----------------------------|
|-----------------------|--------0h1p0-----0h1p0-----|
|-0-0-0-0-0-0-0-0-0-0-0-|-0-0-0--------3-3-------3-1-|
...............................
|-----------------|--------------------|
|-----------------|--------------------|
|-----------------|--------------------|
|-555555555556--6-|-5555555555510-8--6-|
|-555555555556--6-|-5555555555510-8--6-|
|-333333333334--4-|-333333333338--6--4-|
.............       ...........
|-----------------------|--------------------------|
|-----------------------|--------------------------|
|-----------------------|--------------------------|
|-----------------------|--------------------------|
|-----------------------|--------------------------|
|-0-0-0-0-0-0-0-0-0-0-0-|-0-0-0-0-0-6-5-3-0--------|
................................... 
|-------------------------------|-------------------------------|
|-------------------------------|-------------------------------|
|-------------------------------|-------------------------------|
|-------------------------------|-------------------------------|
|-----------------------------5-|-----------------------------5-|
|-0-3-0-3-5-3-5-3-6-3-5-3-5-7---|-0-3-0-3-5-3-5-3-6-3-5-3-5-7---|
.................                 ...............
|-------------------------------|-------------------------------|
|-------------------------------|-------------------------------|
|-------------------------------|-------------------------------|
|-------------------------------|-------------------------------|
|-----------------------------5-|-------------------------------|
|-0-3-0-3-5-3-5-3-6-3-5-3-5-7---|-0-3-0-3-5-3-5-3-6-5-3-0-------|
.................                 ...............
|-------------------------------|-------------------------------|
|-------------------------------|-------------------------------|
|-------------------------------|-------------------------------|
|-------------------------------|-------------------------------|
|-----------------------------5-|-----------------------------5-|
|-0-3-0-3-5-3-5-3-6-3-5-3-5-7---|-0-3-0-3-5-3-5-3-6-3-5-3-5-7---|
.................                 ...............
|-------------------------------|-------------------------------|
|-------------------------------|-------------------------------|
|-------------------------------|-------------------------------|
|-------------------------------|-------------------------------|
|-----------------------------5-|-------------------------------|
|-0-3-0-3-5-3-5-3-6-3-5-3-5-7---|-0-3-0-3-5-3-5-3-6-5-3-0-------|
.................                 ...............
|-----------------------|------------------------|
|-----------------------|------------------------|
|-----------------------|------------------------|
|---------------------0-|----------------0-----0-|
|---------------0h1h2---|-----------0h1h2-0h1h2--|
|-0-0-0-0-0-0-0---------|-0-0-0-0-0--------------|
...............           .........
|-----------------------|----------------------------|
|-----------------------|----------------------------|
|-----------------------|----------------------------|
|---------------------0-|----------------------------|
|---------------0h1h2---|-----------0h1p0---0h1p0----|
|-0-0-0-0-0-0-0---------|-0-0-0-0-0------3-3-----3-1-|
  …………………………………           .........

|-----------------------|----------------------------|
|-----------------------|----------------------------|
|-----------------------|----------------------------|
|---------------------0-|----------------------------|
|---------------0h1h2---|-----------0h1p0---0h1p0----|
|-0-0-0-0-0-0-0---------|-0-0-0-0-0------3-3-----3-3-|
...............           .........

|-----------------------|--------------------------|
|-----------------------|--------------------------|
|-----------------------|--------------------------|
|-----------------------|-----------------0--------|
|-----------------------|-----------0h1h2----------|
|-0-0-0-0-0-0-0-0-0-0-0-|-0-0-0-0-0----------------|
...................................
|-----------------------|----------------------------|
|-----------------------|----------------------------|
|-----------------------|----------------------------|
|-----------------------|----------------------------|
|-----------------------|--------0h1p0-----0h1p0-----|
|-0-0-0-0-0-0-0-0-0-0-0-|-0-0-0--------3-3-------3-1-|
...............................
|-----------------------|--------------------------|
|-----------------------|--------------------------|
|-----------------------|--------------------------|
|-----------------------|-----------------0--------|
|-----------------------|-----------0h1h2----------|
|-0-0-0-0-0-0-0-0-0-0-0-|-0-0-0-0-0----------------|
...................................
|-----------------------|----------------------------|
|-----------------------|----------------------------|
|-----------------------|----------------------------|
|-----------------------|----------------------------|
|-----------------------|--------0h1p0-----0h1p0-----|
|-0-0-0-0-0-0-0-0-0-0-0-|-0-0-0--------3-3-------3-1-|
...............................
[ Tab from: http://www.guitartabs.cc/tabs/p/pantera/cowboys_from_hell_tab_ver_3.html ]
|-----------------|--------------------|
|-----------------|--------------------|
|-----------------|--------------------|
|-555555555556--6-|-5555555555510-8--6-|
|-555555555556--6-|-5555555555510-6--4-|
|-333333333334--4-|-333333333338--6--4-|
.............       ...........
|-------------------------------|-------------------------------|
|-------------------------------|-------------------------------|
|-------------------------------|-------------------------------|
|-------------------------------|-------------------------------|
|-----------------------------5-|-----------------------------5-|
|-0-3-0-3-5-3-5-3-6-3-5-3-5-7---|-0-3-0-3-5-3-5-3-6-3-5-3-5-7---|
.................                 ............... 
|-------------------------------|-------------------------------|
|-------------------------------|-------------------------------|
|-------------------------------|-------------------------------|
|-------------------------------|-------------------------------|
|-----------------------------5-|-------------------------------|
|-0-3-0-3-5-3-5-3-6-3-5-3-5-7---|-0-3-0-3-5-3-5-3-6-5-3-0-------|
.................                 ...............

|-------------------------------|-------------------------------|
|-------------------------------|-------------------------------|
|-------------------------------|-------------------------------|
|-------------------------------|-------------------------------|
|-----------------------------5-|-----------------------------5-|
|-0-3-0-3-5-3-5-3-6-3-5-3-5-7---|-0-3-0-3-5-3-5-3-6-3-5-3-5-7---|
.................                 ...............
|-------------------------------|-------------------------------|
|-------------------------------|-------------------------------|
|-------------------------------|-------------------------------|
|-------------------------------|-----------------5---4---3-----|
|-----------------------------5-|-----------------5---4---3-----|
|-0-3-0-3-5-3-5-3-6-3-5-3-5-7---|-0-3-0-3-5-3-5-3-3---2---1-----|
.................                 ...............
Behind the Solo
|------------|------------|------------|-----------------|
|------------|------------|------------|-----------------|
|-----4------|-----5------|-----6------|-----7-----------|
|-----4------|-----5------|-----6------|-----7-5---4---3-|
|-----2------|-----3------|-----4------|-----5-5---4---3-|
|-0-0--------|-0-0--------|-0-0--------|-0-0---3---2---1-|
play this 4 times behind the solo. 
.....          ...          ...          ...

Solo
--------------------------------------------------------------------------------------
--------------------------------------------------------------------------------------
----------------------------------------------15----15----15^-------------------------
-------------8---8---8---------8/14--------14----14----14-----------------------------
-----7-----7---7---7------------------------------------------------------------11-12-
-0-0----------------------------------------------------------11-12-15-11-12-15-------

-----------------------------------------------------------------11-12-15p12p11-11-12-
-----------------------------------------------11-12-15-11-12-15----------------------
-----------------------------11-12-15-11-12-15----------------------------------------
-------------11-12-15-11-12-15--------------------------------------------------------
-15-11-12-15--------------------------------------------------------------------------
--------------------------------------------------------------------------------------

-15p12p11-15p12h15^^--12-14-17p14p12-12-14-17p14p121214-17p14p12-12-14-17p14p12-12-15-
--------------------------------------------------------------------------------------
--------------------------------------------------------------------------------------
--------------------------------------------------------------------------------------
--------------------------------------------------------------------------------------
--------------------------------------------------------------------------------------

-19p15p12h15-20p15p12h15--------------------------------------------------------------
-------------------------20p15p12h15p12-----------------------------------------------
----------------------------------------20p15p12h15p12--------------------------------
-------------------------------------------------------20p15p12h15p12-14-------14\5/14
--------------------------------------------------------------------------------------
--------------------------------------------------------------------------------------

---------------------------------------------15-----------------18----18----18^-------
-----------------------------15^-----15^--------15^-----15\8/17----17----17-----------
-15----15----15-------15~~~~-----------------------------------------------------7/14-
----14----14--------------------------------------------------------------------------
--------------------------------------------------------------------------------------
--------------------------------------------------------------------------------------

--------------------------------------------------------------------------------------
-12----------------12----------------12----------------12----------------12^-12^------
----15-14-12-14-15----15-14-12-14-15----15-14-12-14-15----15-14-12-14-15-12^-12^------
------------------------------------------------------------------------------14p12h14
--------------------------------------------------------------------------------------
--------------------------------------------------------------------------------------

-14^^---12-14-----12-15-----12-15------12-------------------15-----19-----20----21----
--------------15^-------15^--------15^----14^p12-------11/12--12/15--15/17-17/1818/19-
-------------------------------------------------14\0---------------------------------
--------------------------------------------------------------------------------------
--------------------------------------------------------------------------------------
--------------------------------------------------------------------------------------

|---------------------|-----------------------|-----------------------|
|-2p0----2p0---2p0/5*-|----2p0---2p0---2p0/5*-|----2p0---2p0---2p0/5*-|
|---------------------|-----------------------|-----------------------|
|---------------------|-----------------------|-----------------------|
|---------------------|-----------------------|-----------------------|
|-----0-0---0-0-------|-0-0---0-0---0-0-------|-------0-0---0-0-------|
      ...   ...         ...   ...   ...               ...   ...
|-------------------------------------|
|-------------------------------------|
|-------14p12--12p11--11p9--9p7--7p6--|
|-12-12------14-----12----11----9---7-|
|-------------------------------------|
|-------------------------------------|

|---------------------|-----------------------|-----------------------|
|-2p0----2p0---2p0/5*-|----2p0---2p0---2p0/5*-|----2p0---2p0---2p0/5*-|
|---------------------|-----------------------|-----------------------|
|---------------------|-----------------------|-----------------------|
|---------------------|-----------------------|-----------------------|
|-----0-0---0-0-------|-0-0---0-0---0-0-------|-------0-0---0-0-------|
      ...   ...         ...   ...   ...               ...   ...
|-17p15--15p14--14p12--12p10--10p9---|
|------17-----15-----14-----12----10-|
|------------------------------------|
|------------------------------------|
|------------------------------------|
|------------------------------------|


|-------------------------------|-------------------------------|
|-------------------------------|-------------------------------|
|-----------------------------8-|-----------------------------8-|
|---5---5-7-5-7-5-8-5-7-5-7-9---|---5---5-7-5-7-5-8-5-7-5-7-9---|
|-7---7-------------------------|-7---7-------------------------|
|-------------------------------|-------------------------------|
................................................................
|-------------------------------|-------------------------------|
|-------------------------------|-------------------------------|
|-----------------------------8-|-------------------------------|
|---5---5-7-5-7-5-8-5-7-5-7-9---|---5---5-7-5-7-5-8-7-5---------|
|-7---7-------------------------|-7---7-----------------7////---|
|-------------------------------|-------------------------------|
................................................................
|-------------------------------|-------------------------------|
|-------------------------------|-------------------------------|
|-------------------------------|-------------------------------|
|-------------------------------|-------------------------------|
|-----------------------------5-|-----------------------------5-|
|-0-3-0-3-5-3-5-3-6-3-5-3-5-7---|-0-3-0-3-5-3-5-3-6-3-5-3-5-7---|
..................                ...............
|-------------------------------|-------------------------------|
|-------------------------------|-------------------------------|
|-------------------------------|-------------------------------|
|-------------------------------|-------------------------------|
|-----------------------------5-|-------------------------------|
|-0-3-0-3-5-3-5-3-6-3-5-3-5-7---|-0-3-0-3-5-3-5-3-6-5-3-0-------|
.................                 ...............
|-------------------------------|-------------------------------|
|-------------------------------|-------------------------------|
|-------------------------------|-------------------------------|
|-------------------------------|-------------------------------|
|-----------------------------5-|-----------------------------5-|
|-0-3-0-3-5-3-5-3-6-3-5-3-5-7---|-0-3-0-3-5-3-5-3-6-3-5-3-5-7---|
.................                 ...............
|-------------------------------|-------------------------------|
|-------------------------------|-------------------------------|
|-------------------------------|-------------------------------|
|-------------------------------|-------------------------------|
|-----------------------------5-|-------------------------------|
|-0-3-0-3-5-3-5-3-6-3-5-3-5-7---|-0-3-0-3-5-3-5-3-6-5-3-0-------|
.................                 ...............
|---------------------|-----------------------|-----------------------|
|-2p0----2p0---2p0/5*-|----2p0---2p0---2p0/5*-|----2p0---2p0---2p0/5*-|
|---------------------|-----------------------|-----------------------|
|---------------------|-----------------------|-----------------------|
|---------------------|-----------------------|-----------------------|
|-----0-0---0-0-------|-0-0---0-0---0-0-------|-------0-0---0-0-------|
      ...   ...         ...   ...   ...               ...   ...
|-------------------------------|
|-------------------------------|
|-14p12--12p11--11p9--9p7--7p6--|
|------14-----12----11----9---7-|
|-------------------------------|
|-------------------------------|


|---------------------|-----------------------|-----------------------|
|-2p0----2p0---2p0/5*-|----2p0---2p0---2p0/5*-|----2p0---2p0---2p0/5*-|
|---------------------|-----------------------|-----------------------|
|---------------------|-----------------------|-----------------------|
|---------------------|-----------------------|-----------------------|
|-----0-0---0-0-------|-0-0---0-0---0-0-------|-------0-0---0-0-------|
      ...   ...         ...   ...   ...               ...   ...
|-17p15--15p14--14p12--12p10--10p9---|
|------17-----15-----14-----12----10-|
|------------------------------------|
|------------------------------------|
|------------------------------------|
|------------------------------------|

|-------------------------|
|-------------------------|
|-------------------------|
|-----------------------2-|
|-------------0h1p0-----2-|
|-0-0-0-0-0---------3-3-0-|
...........         
Comments