Pantera - Cowboys From Hell Chords & Tabs

 

Cowboys From Hell Chords & Tabs

Pantera Chords & Tabs

Version: 1 Type: Tab 0 ratings
1 star 2 stars 3 stars 4 stars 5 stars
comments

Cowboys From Hell Tab

These are the main riffs for Cowboys From Hell.  I will let 
you figure out the order and all.  Some of the riffs are changed 
throught out the songs, so listen to the cd when learning it.  



----------------------------------------
----------------------------------------
-------------------------------------7-
---5--5--7-5-7-5-8-5-7-5--8h9----
-7--7---------------------------------
---------------------------------------

-----------------------------------------
----------------------------------------
----------------------------------------
---5--5--7-5-7-5-8-5-7-5-----------
-7--7-------------------------6-5-3-0-
-----------------------------------------
[ Tab from: http://www.guitartabs.cc/tabs/p/pantera/cowboys_from_hell_tab.html ]
---------------------
---------------------
---------------------
------------1h2p0--
-2222222----------
-0000000----------

--------------|------------
--------------|------------
--------------|------------
--------------|------------
-55555-66-|-55555-64
-33333-44-|-33333-42

---------------------------------
----------------------------------
----------------------------------
----------------------------------
-2p0---2p0---2p0-----\12\12-
----------------------------------

----------------------------------------------
----------------------------------------------
-14p12----12/11----11/9---9/7---7/6----
---------14--------12------11----9------7-
----------------------------------------------
-----------------------------------------------
Comments