Pantera - Cemetery Gates Chords & Tabs

 

Cemetery Gates Chords & Tabs

Pantera Chords & Tabs

Version: 4 Type: Tab 10 ratings
1 star 2 stars 3 stars 4 stars 5 stars
comments

Cemetery Gates Tab

   
From: Aaron Gaylord 

Pantera - Cemetery Gates
Album: Vulgar Display of Power


Tune down 1/2 step {Eb,Ab,Db,Gb,Bb,Eb)

Intro: (I play it with just fingers cuz I think it sounds right but its up to you.
e------------------|-----------------|----------------|------0-----------
B----------2-------|------0--0-------|------0--0------|----2-----2-------
G--------2---2-----|----4------4-----|----4------4----|--4---------4-----
D------2-----------|--2--------------|--2----------0--|------------------
A----4----------0--|-----------------|----------------|------------------
E--2---------------|--------------0--|----------------|------------------

e------------------|-----------------|----------------|---------0--------
B----------2-------|------0--0-------|------0--0------|--2--------2------
G--------2---2-----|----4------4-----|----4------4----|----4--------4----
D------2-----------|--2--------------|--2----------0--|------0--------0--
A----4----------0--|-----------------|----------------|------------------
E--2---------------|--------------0--|----------------|------------------

   "Reverend           Reverend          is this some conspiricy..."
e------------------|-----------------|----------------|------0-----------
B----------2-------|------0--0-------|------0--0------|----2-----2-------
G--------2---2-----|----4------4-----|----4------4----|--4---------4-----
D------2-----------|--2--------------|--2----------0--|------------------
A----4----------0--|-----------------|----------------|------------------
E--2---------------|--------------0--|----------------|------------------

   "Crucified    for   no  sins               An image, beneath me..."
e------------------|-----------------|----------------|------0-----------
B----------2-------|------0--0-------|------0--0------|----2-----2-------
G--------2---2-----|----4------4-----|----4------4----|--4---------4-----
D------2-----------|--2--------------|--2----------0--|--------------0---
A----4----------0--|-----------------|----------------|------------------
E--2---------------|--------------0--|----------------|------------------

 "What is with..."
e------------------|-----------------|----------------|------0-----------
B----------2-------|------0--0-------|------0--0------|----2-----2-------
G--------2---2-----|----4------4-----|----4------4----|--4---------4-----
D------2-----------|--2--------------|--2----------0--|------------------
A----4----------0--|-----------------|----------------|------------------
E--2---------------|--------------0--|----------------|------------------

 "I’m  a man..."
e------------------|-----------------|----------------|-----0^^^\------0------
B----------2-------|------0--0-------|------0--0------|-----3-\-5------5-\-7--
G--------2---2-----|----4------4-----|----4------4----|--4--4-\-6------6-\-7--
D------2-----------|--2--------------|--2----------0--|--------------0--------
A----4----------0--|-----------------|----------------|-----------------------
E--2---------------|--------------0--|----------------|-----------------------

1st Guitar Solo
|-----------------|------------
|-----------------|------------
|---9--(9)~~~--8--|~~~--7------
|-----------------|------------
|-----------------|------------
|-----------------|------------


|-------------------------|-----------------|-------------------|-----
|---------10-----(10)-----|---9-----(9)-----|---12-----(12)-----|-----
|-----x----------------6--|--------------9--|----------------8--|-----
|--x----------------------|-----------------|-------------------|-----
|-------------------------|-----------------|-------------------|-----
|-------------------------|-----------------|-------------------|-----


-----------|-------|---------------------------|----------------------
-15--------|-------|---------------------------|----------------------
--------7--|~~~--\\|----------------4-----(4)--|---(4)-----(4)--6-----
-----------|-------|------------4--------------|----------------------
-----------|-------|--------x------------------|----------------------
-----------|-------|-----x---------------------|----------------------


---|-----------------|--------------------------|---------------------
---|---------5--(5)--|--(5)~~~---5---(5)---(5)--|---(5)---(5)~~~------
\4p|--2--------------|--------------------------|---------------------
---|-----2-----------|--------------------------|---------------------
---|-----------------|--------------------------|---------------------
---|-----------------|--------------------------|---------------------

         
|-----------------|---------------|-----------------------------------
|-----------------|--12--(12)/15--|--(15)\12--15/17--(17)p14--17------
|---------6--(6)--|---------------|-----------------------------------
|-----x-----------|---------------|-----------------------------------
|--x--------------|---------------|-----------------------------------
|-----------------|---------------|-----------------------------------

                                                     
-----|-----------------------------------------
p15--|--(15)p12--15/17--(17)p14--17--17~~~~~~--
-----|-----------------------------------------
-----|-----------------------------------------
-----|-----------------------------------------
-----|-----------------------------------------



1:33
Riff 1
e----------------------------------
B----------------------------------
G----------------------------------
D--2--2-2-2-2---------------9------
A--0--0-0-0-0--7-6-7--8-7-8---7-8--
E----------------------------------

e-------------------------------------------
B-------------------------------------------
G-------------------------------------------
D--2--2-2-2-2-------------------------------
A--0--0-0-0-0--7-6-7--8-6-7---6-------------
E---------------------------8---7~~---------

Repeat Riff 1 two more times, then on the third time play Riff 2

Riff 2
e----------------------------------
B----------------------------------
G----------------------------------
D--2--2-2-2-2---------------9------
A--0--0-0-0-0--7-6-7--8-7-8---7-8--
E----------------------------------

e-------------------------------------------
B-------------------------------------------
G-------------------------------------------
D--2--2-2-2-2-----------------2--3----------
A--0--0-0-0-0--7-6-7--8-6-7---0--1----------
E-------------------------------------------

Riff 3
e-------------------------------------------
B-------------------------------------------
G-------------------------------------------
D---------2-2-2--4-4-4--5-------------------
A--4-4-4--0-0-0--2-2-2--3--2--3-------------
E--2-2-2-------------------0--1-------------

Repeat Riff 3 one more time dragging the last two notes out a little, play it again normal,
then play it a final time playing the last note again.

Now comes the softer part of the song. Play this three times:
 
 "Reverend..."
e------------------|-----------------|----------------|------0-----------
B----------2-------|------0--0-------|------0--0------|----2-----2-------
G--------2---2-----|----4------4-----|----4------4----|--4---------4-----
D------2-----------|--2--------------|--2----------0--|------------------
A----4----------0--|-----------------|----------------|------------------
E--2---------------|--------------0--|----------------|------------------

On the fourth time, play this: (with pick)
 "I watch..."
e------------------|-----------------|----------------
B----------2-------|------0--0-------|------0--0------
G--------2---2-----|----4------4-----|----4------4----
D------2-----------|--2--------------|--2----------0--
A----4----------0--|-----------------|----------------
E--2---------------|--------------0--|----------------

Slide the pick down the neck and play:

I cant figure it out.

Then at 3:02, play:

Riff 1
e----------------------------------
B----------------------------------
G----------------------------------
D--2--2-2-2-2---------------9------
A--0--0-0-0-0--7-6-7--8-7-8---7-8--
E----------------------------------

e-------------------------------------------
B-------------------------------------------
G-------------------------------------------
D--2--2-2-2-2-------------------------------
A--0--0-0-0-0--7-6-7--8-6-7---6-------------
E---------------------------8---7~~---------

Then:

Riff 2
e----------------------------------
B----------------------------------
G----------------------------------
D--2--2-2-2-2---------------9------
A--0--0-0-0-0--7-6-7--8-7-8---7-8--
E----------------------------------

e-------------------------------------------
B-------------------------------------------
G-------------------------------------------
D--2--2-2-2-2-----------------2--3----------
A--0--0-0-0-0--7-6-7--8-6-7---0--1----------
E-------------------------------------------

Riff 3
e-------------------------------------------
B-------------------------------------------
G-------------------------------------------
D---------2-2-2--4-4-4--5-------------------
A--4-4-4--0-0-0--2-2-2--3--2--3-------------
E--2-2-2-------------------0--1-------------

Repeat Riff 3 one more time dragging the last two notes out a little,
play it again normal, then play it a final time playing the last note
again. Then play:

  Sometimes when...
e------------------|-----------------|----------------|------0-----------
B----------2-------|------0--0-------|------0--0------|----2-----2-------
G--------2---2-----|----4------4-----|----4------4----|--4---------4-----
D------2-----------|--2--------------|--2----------0--|------------------
A----4----------0--|-----------------|----------------|------------------
E--2---------------|--------------0--|----------------|------------------

Play three more times, then:

e------------------|-----------------|----------------
B----------2-------|------0--0-------|------0--0------
G--------2---2-----|----4------4-----|----4------4----
D------2-----------|--2--------------|--2----------0--
A----4----------0--|-----------------|----------------
E--2---------------|--------------0--|----------------

Slide the pick down the neck, then play:

I cant figure it out

Then at 4:25, play:

Riff 1
e----------------------------------
B----------------------------------
G----------------------------------
D--2--2-2-2-2---------------9------
A--0--0-0-0-0--7-6-7--8-7-8---7-8--
E----------------------------------

e-------------------------------------------
B-------------------------------------------
G-------------------------------------------
D--2--2-2-2-2-------------------------------
A--0--0-0-0-0--7-6-7--8-6-7---6-------------
E---------------------------8---7~~---------
[ Tab from: http://www.guitartabs.cc/tabs/p/pantera/cemetery_gates_tab_ver_4.html ]
e----------------------------------
B----------------------------------
G----------------------------------
D---------------9------------------
A--7-6-7--8-7-8---7-8--------------
E----------------------------------

e-------------------------------------------
B-------------------------------------------
G-------------------------------------------
D--2--2-2-2-2-------------------------------
A--0--0-0-0-0--7-6-7--8-6-7---6-------------
E---------------------------8---7~~---------

e----------------------------------
B----------------------------------
G----------------------------------
D--2--2-2-2-2---------------9------
A--0--0-0-0-0--7-6-7--8-7-8---7-8--
E----------------------------------

e---------------------------------------------------------
B---------------------------------------------------------
G---------------------------------------------------------
D--2--2-2-2-2---------5--------5--------5--------5--------
A--0--0-0-0-0--7-6-7--3--2--3--3--2--3--3--2--3--3--2--3--
E------------------------0--1-----0--1-----0--1-----0--1--

Now here's the second solo:

4:52
------------------------|-----5-----5--4------
---2-----2--5/7\5--3p2--|~~~-----2------------
------4-----------------|---------------------
------------------------|---------------------
------------------------|---------------------
------------------------|---------------------

|----12--------9---|-------|--12-----10--(10)~~~--10p9--|------9------
|--------9-----10--|--5/9--|------9---------------------|--12---------
|/9---------9------|-------|----------------------------|-------------
|------------------|-------|----------------------------|-------------
|------------------|-------|----------------------------|-------------
|------------------|-------|----------------------------|-------------

                                                     Full   Full
------------|----------------------|--------7-----7-------------------
10~~~--(10)\|/10--9--8--7--6--5h6--|--7~~~-----7------7~~~---(7)------
------------|----------------------|----------------------------------
------------|----------------------|----------------------------------
------------|----------------------|----------------------------------
------------|----------------------|----------------------------------

             Full   Tap                              Tap
----------7-----------------------------|----7h9h10---12p10p9p7h9-----
~~~--(7)------7------8p(7)--(7)p(5)~~~--|/9---------------------------
----------------------------------------|-----------------------------
----------------------------------------|-----------------------------
----------------------------------------|-----------------------------
----------------------------------------|-----------------------------

     Tap                    Tap     Tap           Tap     Tap
h10---12/14--(14)p12p10--|---14p10---14/16p14p12---15p12---15/17------
-------------------------|--------------------------------------------
-------------------------|--------------------------------------------
-------------------------|--------------------------------------------
-------------------------|--------------------------------------------
-------------------------|--------------------------------------------

(17)p16p14--14--19/21--17------17--|------19--16------16--------------
---------------------------19------|--19----------17------17~~~-------
-----------------------------------|----------------------------------
-----------------------------------|----------------------------------
-----------------------------------|-----------------------------7----
-----------------------------------|----------------------------------

---|--------------------------------------------------------|---------
---|--------------------------------------------------------|---------
---|-----------------------------------------9--10--11--12--|---------
---|---------------6--7--8--9--8--9--10--11-----------------|---------
7--|--7--8--9--10-------------------------------------------|--x------
---|--------------------------------------------------------|---------

                  P.SFull                Full                Full
------------------|-----------14------------------14------------------
------------------|-------14------17p14-------14------17p14-----------
---6--------6----\|---16------------------16------------------16------
x--------x--------|---------------------------------------------------
------x-----------|---------------------------------------------------
------------------|---------------------------------------------------

                  Full                    Full     Full     Full
----14--|----------------------14--------------14-------14-------|----
14------|--17p14-------14--14------17p14---17-------17-------17--|----
--------|----------16--------------------------------------------|----
--------|--------------------------------------------------------|----
--------|--------------------------------------------------------|----
--------|--------------------------------------------------------|----

21p14--21p14--21p14--21p14--20--20p14--20--20p14--20p14--|--19h20-----
---------------------------------------------------------|------------
---------------------------------------------------------|------------
---------------------------------------------------------|------------
---------------------------------------------------------|------------
---------------------------------------------------------|------------

p19p17------19h20p19p17------------------------14--16--|--17--16------
--------19---------------19--19--19--19~~~/17----------|--------------
-------------------------------------------------------|--------------
-------------------------------------------------------|--------------
-------------------------------------------------------|--------------
-------------------------------------------------------|--------------

14------14--17h19p17p14--14h17p14h17p14--14--14-----------------------
----17-------------------------------------------19p17p14--17p14------
----------------------------------------------------------------------
----------------------------------------------------------------------
----------------------------------------------------------------------
----------------------------------------------------------------------

|---------------------------------------------------------------------
|--14h15p14h15p14------14---------------------------------------------
|------------------17------17p14--16p14------14--------14h16p14-------
|----------------------------------------16------1/16-----------------
|---------------------------------------------------------------------
|---------------------------------------------------------------------

w/ bar w/ bar        w/ bar
-------------------------------------------------|--------------------
-------------------------------------------------|--------------------
-\(14)\----13p11\10-\---11p10p9--11p1p9--10p9p8--|--10p9p8------------
-------------------------------------------------|--------------------
-------------------------------------------------|--------------------
-------------------------------------------------|--------------------

w/ bar   w/ barw/ bar      P.dive w/ bar
------------------------------------||--------------------------------
------------------------------------||--------------------------------
-/9p(7)-/9----/6------------\\------||--------------------------------
------------------------x-----------||--------------------------------
---------------------x--------------||--------------------------------
------------------------------------||--------------------------------

In the background, another guitar is playing:

e------------------|-----------------|----------------|------0-----------
B----------2-------|------0--0-------|------0--0------|----2-----2-------
G--------2---2-----|----4------4-----|----4------4----|--4---------4-----
D------2-----------|--2--------------|--2----------0--|------------------
A----4----------0--|-----------------|----------------|------------------
E--2---------------|--------------0--|----------------|------------------

Until 5:14, then comes:

Riff 3
e-------------------------------------------
B-------------------------------------------
G-------------------------------------------
D---------2-2-2--4-4-4--5-------------------
A--4-4-4--0-0-0--2-2-2--3--2--3-------------
E--2-2-2-------------------0--1-------------

Repeat 7 more times, then on the 8th time, play:

e-------------------------------------------
B-------------------------------------------
G-------------------------------------------
D---------2-2-2--4-4-4--5--------5----------
A--4-4-4--0-0-0--2-2-2--3--2--3--3--2--3----
E--2-2-2-------------------0--1-----0--1----

Then:

Riff 1
e----------------------------------
B----------------------------------
G----------------------------------
D--2--2-2-2-2---------------9------
A--0--0-0-0-0--7-6-7--8-7-8---7-8--
E----------------------------------

e-------------------------------------------
B-------------------------------------------
G-------------------------------------------
D--2--2-2-2-2-------------------------------
A--0--0-0-0-0--7-6-7--8-6-7---6-------------
E---------------------------8---7~~---------

e----------------------------------
B----------------------------------
G----------------------------------
D---------------9------------------
A--7-6-7--8-7-8---7-8--------------
E----------------------------------

e-------------------------------------------
B-------------------------------------------
G-------------------------------------------
D--2--2-2-2-2-------------------------------
A--0--0-0-0-0--7-6-7--8-6-7---6-------------
E---------------------------8---7~~---------

e----------------------------------
B----------------------------------
G----------------------------------
D--2--2-2-2-2---------------9------
A--0--0-0-0-0--7-6-7--8-7-8---7-8--
E----------------------------------

e---------------------------------------
B---------------------------------------
G---------------------------------------
D--2--2-2-2-2---------5--------5--------
A--0--0-0-0-0--7-6-7--3--2--3--3--2--3--
E------------------------0--1-----0--1--

Then:

6:14
e----------------------------------
B----------------------------------
G----------------------------------
D--2--2-2-2-2----------------------
A--0--0-0-0-0--7-6-7~~~~~~---------
E----------------------------------

e-------------------------------------------
B-------------------------------------------
G-------------------------------------------
D--2--2-2-2-2------------9~~----------------
A--0--0-0-0-0--7-6-7--8---------------------
E-------------------------------------------

Repeat till end
Comments