Pantera - Cant Hide Chords & Tabs

 

Cant Hide Chords & Tabs

Pantera Chords & Tabs

Version: 1 Type: Bass Tab 0 ratings
1 star 2 stars 3 stars 4 stars 5 stars
comments

Cant Hide Bass Tab

Band- Pantera
Song- Cant Hide

 intro
------------------------------------------------------|
------------------------------------------------------|
--5-5-5-5-5-5-5-5-5-5-5-5-5-5-------------------------|
------------------------------6-6-6-6-6-6-6-6-3-3-1-1-|

------------------------|
------------------------|
------------------------|
-3-3-3-3-3-3-3-3--1-2-3-|
[ Tab from: http://www.guitartabs.cc/tabs/p/pantera/cant_hide_btab.html ]
-------------------------------------------------------------------------|
-------------------------------------------------------------------------|
-3-3-3-3-3-3-0-0-0-0-0-0-3-3-3-3-3-3-------------3-3-3-3-3-3-0-0-0-0-0-0-|
-------------------------------------3-3-3-2-2-2-------------------------|

----------------|
----------------|
----------------|
-10-9-8-7-6-5---|

----------------------|
----------------------|
----------------------|
-5---5--5--5--5--5--5-|
Comments