Pantera - By Demons Be Driven Chords & Tabs

 

By Demons Be Driven Chords & Tabs

Pantera Chords & Tabs

Version: 1 Type: Tab 0 ratings
1 star 2 stars 3 stars 4 stars 5 stars
comments

By Demons Be Driven Tab

||---------------------------------------------------------------------------|
||------------------------------------------5--------------------------------|
||------------------------------------------7^-------------------------------|
||---------------------------------------------------------------------------|
||---------------2-----------------2-----------------------------------------|
||-0-0-0-0-0-0-0-0---0-0-0-0-0-0-0-0-----------------------------------------|



|---------------------------------------------------------------------------||
|---------------------------------------------------------------------------||
|---------------------------------------------------------------------------||
|---------------------------------------------------------------------------||
|---------------2-----------------2---3-/-5-\-3---5---3---------------------||
|-0-0-0-0-0-0-0-0---0-0-0-0-0-0-0-0---1-/-3-\-1---3---1---------------------||



Riff 1: Ending 2

|-------------------------------|
|-------------------------------|
|-------------------------------|
|---------------------6---------|
|-3---5---3---5---3-------7---5~|
|-1---3---1---3---1-------------|
  .   .   .   .   .   PH  PH  PH



Riff 2


|-----------------------------------------------------------------|
|------------------5----------------------------------------------|
|-----------------------------------------------------------------|
|--------------0--------------------------------------------------|
|---2-/-5--7-----------7-6-5------------------3-4-5-------------5-|
|-0-------------------------7-6-5~----3-4-5----------7-5--5-6-7---|
           PH      PH                         PH---       PH-----


|-----------------------------------------------------------------|
|------------------5----------------------------------------------|
|-----------------------------------------------------------------|
|--------------0------------------------------------------ 6------|
|---2-/-5--7-----------7-6-5------------------3-4-5----------7-5~-|
|-0-------------------------7-6-5~----3-4-5-----------7-5---------|
           PH      PH                         PH---       PH-----

|-----------------------------------------------------------------|
|------------------5----------------------------------------------|
|-----------------------------------------------------------------|
|--------------0--------------------------------------------------|
|---2-/-5--7-----------7-6-5------------------3-4-5-------------5-|
|-0-------------------------7-6-5~----3-4-5----------7-5--5-6-7---|
           PH      PH                         PH---       PH-----



|-------------------------------------------------------------------|
|------------------5------------------------------------------------|
|-------------------------------------------------------------------|
|--------------0-----------------------------------------------4----|
|---2-/-5--7-----------7-6-5------------------3-4-5---2-1------2--2-|
|-0-------------------------7-6-5~----3-4-5---------------3-2-----0-|
           PH      PH                         PH---       











||---------------------------------------------------------------------------|
||------------------------------------------5--------------------------------|
||------------------------------------------7^-------------------------------|
||---------------------------------------------------------------------------|
||---------------2-----------------2-----------------------------------------|
||-0-0-0-0-0-0-0-0---0-0-0-0-0-0-0-0-----------------------------------------|



|---------------------------------------------------------------------------||
|---------------------------------------------------------------------------||
|---------------------------------------------------------------------------||
|---------------------------------------------------------------------------||
|---------------2-----------------2---3-/-5-\-3---5---3---------------------||
|-0-0-0-0-0-0-0-0---0-0-0-0-0-0-0-0---1-/-3-\-1---3---1---------------------||



Riff 1: Ending 2

|-------------------------------|
|-------------------------------|
|-------------------------------|
|---------------------6---------|
|-3---5---3---5---3-------7---5~|
|-1---3---1---3---1-------------|
  .   .   .   .   .   PH  PH  PH



Riff 2


|-----------------------------------------------------------------|
|------------------5----------------------------------------------|
|-----------------------------------------------------------------|
|--------------0--------------------------------------------------|
|---2-/-5--7-----------7-6-5------------------3-4-5-------------5-|
|-0-------------------------7-6-5~----3-4-5----------7-5--5-6-7---|
           PH      PH                         PH---       PH-----

[ Tab from: http://www.guitartabs.cc/tabs/p/pantera/by_demons_be_driven_tab.html ]
|-----------------------------------------------------------------|
|------------------5----------------------------------------------|
|-----------------------------------------------------------------|
|--------------0------------------------------------------ 6------|
|---2-/-5--7-----------7-6-5------------------3-4-5----------7-5~-|
|-0-------------------------7-6-5~----3-4-5-----------7-5---------|
           PH      PH                         PH---       PH-----

|-----------------------------------------------------------------|
|------------------5----------------------------------------------|
|-----------------------------------------------------------------|
|--------------0--------------------------------------------------|
|---2-/-5--7-----------7-6-5------------------3-4-5-------------5-|
|-0-------------------------7-6-5~----3-4-5----------7-5--5-6-7---|
           PH      PH                         PH---       PH-----



|-------------------------------------------------------------------|
|------------------5------------------------------------------------|
|-------------------------------------------------------------------|
|--------------0-----------------------------------------------4----|
|---2-/-5--7-----------7-6-5------------------3-4-5---2-1------2--2-|
|-0-------------------------7-6-5~----3-4-5---------------3-2-----0-|
           PH      PH                         PH---       


















From ajjw@pacbell.net Sat Mar 15 11:53:37 1997
Date: Wed, 12 Mar 1997 11:36:54 -0800
From: Aaron Wells and Family 
To: alfieii@umich.edu
Subject: here ya go

The first riff when phil sings sounded a little off when I was 
playing the song today. So try this out it sounds a little better. Glad 
you liked it. 


						Jon

  [ Part 2: "Attached Text" ]

Pantera - By Demons, Be Driven
>From The Album: Vulgar DIsplay Of Power
tabbed by Jon Wells

Tune down to E flat



||---------------------------------------------------------------------------|
||------------------------------------------5--------------------------------|
||------------------------------------------7^-------------------------------|
||---------------------------------------------------------------------------|
||---------------2-----------------2-----------------------------------------|
||-0-0-0-0-0-0-0-0---0-0-0-0-0-0-0-0-----------------------------------------|



|---------------------------------------------------------------------------||
|---------------------------------------------------------------------------||
|---------------------------------------------------------------------------||
|---------------------------------------------------------------------------||
|---------------2-----------------2---3-/-5-\-3---5---3---------------------||
|-0-0-0-0-0-0-0-0---0-0-0-0-0-0-0-0---1-/-3-\-1---3---1---------------------||



Riff 1: Ending 2

|-------------------------------|
|-------------------------------|
|-------------------------------|
|---------------------6---------|
|-3---5---3---5---3-------7---5~|
|-1---3---1---3---1-------------|
  .   .   .   .   .   PH  PH  PH



Riff 2


|-----------------------------------------------------------------|
|------------------5----------------------------------------------|
|-----------------------------------------------------------------|
|--------------0--------------------------------------------------|
|---2-/-5--7-----------7-6-5------------------3-4-5-------------5-|
|-0-------------------------7-6-5~----3-4-5----------7-5--5-6-7---|
           PH      PH                         PH---       PH-----


|-----------------------------------------------------------------|
|------------------5----------------------------------------------|
|-----------------------------------------------------------------|
|--------------0------------------------------------------ 6------|
|---2-/-5--7-----------7-6-5------------------3-4-5----------7-5~-|
|-0-------------------------7-6-5~----3-4-5-----------7-5---------|
           PH      PH                         PH---       PH-----

|-----------------------------------------------------------------|
|------------------5----------------------------------------------|
|-----------------------------------------------------------------|
|--------------0--------------------------------------------------|
|---2-/-5--7-----------7-6-5------------------3-4-5-------------5-|
|-0-------------------------7-6-5~----3-4-5----------7-5--5-6-7---|
           PH      PH                         PH---       PH-----



|-------------------------------------------------------------------|
|------------------5------------------------------------------------|
|-------------------------------------------------------------------|
|--------------0-----------------------------------------------4----|
|---2-/-5--7-----------7-6-5------------------3-4-5---2-1------2--2-|
|-0-------------------------7-6-5~----3-4-5---------------3-2-----0-|
           PH      PH                         PH---       












Comments