Pantera - Becoming Chords & Tabs

 

Becoming Chords & Tabs

Pantera Chords & Tabs

Version: 2 Type: Tab 0 ratings
1 star 2 stars 3 stars 4 stars 5 stars
comments

Becoming Tab

   
all the other versions of this song are
totally fuckin wrong!!!

riff a
f------------------I---------------------
c--777---777---777-I-777---777---7--7----
g--777---777---777-I-777---777---7--7----
d--555---555---555-I-555---555---5--5----

riffb                       x4
f-----------------------------
c-----------------------------
g---------------------4--5----
d-0-0-210-0-210-0-210-2--3----
  pm..................

riffc (verse)                        x4
f--------------------------------------
c--------------------------------------
g-----1p0-1----1p0-1----1p0---4--5-----
d-0-0-0---0--0-0---0--0-0---0-2--3-----
  pm..       .        .     .
[ Tab from: http://www.guitartabs.cc/tabs/p/pantera/becoming_tab_ver_2.html ]
prechorus: riffb x4

chorus                                  x2
f-----------------------------------------
c-----------------------------------------
g--9--7-------7-------------------7-------
d--7--5---0-0-5---2/(7)7-6-5~-0-0-5-------
          pm.                 ...

riff a (last bar only)
riff b x4
riff c x4
riff b x4
chorus x2
riff a x1

solo (bass plays riff a x4)

riff a (last bar only)

outro                         x4
f-------------------------------
c-------------------------------
g--2-2---2-2---2-2---2-4--5-----
d--0-0---0-0---0-0---0-2--3-----


i'll be posting more correct tabs soon for
pantera, slayer, metallica, & megadeth
Comments