Pantera - Becoming Chords & Tabs

 

Becoming Chords & Tabs

Pantera Chords & Tabs

Version: 1 Type: Tab 0 ratings
1 star 2 stars 3 stars 4 stars 5 stars
comments

Becoming Tab

Band:PanterA
Song:Becoming
Album:Far Beyond Driven
Tabbed By:Robert Tyler DrowningRedneck@aol.com

Note:Okay, I'm a huge PanterA fan,and i love the song Becoming,But when 
i went online the one tab that i found was incorrect, so I took the time
to tab the song correctly,now to the tab.....The one effect that is used 
throughout the song is the RING MODULATOR this is the only effect that i 
can find that sounds perfect with many Pantera songs.On a scale for 1-30 
set the Ring on a 9. I will guide you though most of the correct ways to
use the Ring Mod.

Key:~=Ring Mod. p.m.=Palm Mute p=pull off h=hammer on b=bend


Tuning:DADGBe

Intro

e----------------------------------------------------------------------
B----------------------------------------------------------------------
G----------------------------------------------------------------------
D---3-3-3-3-3-3-3-3-3-3-3-3-3-3-3-3-3----------------------------------
A---3-3-3-3-3-3-3-3-3-3-3-3-3-3-3-3-3----------------------------------
D---3-3-3-3-3-3-3-3-3-3-3-3-3-3-3-3-3----------------------------------

Main Riff Note:When Playing The notes W/ the Ring Mod. dont completely 
mute the d a d strings,this will give you the right sound.

e-------7~-----------------7~------------------------------------------
B----------------------------------------------------------------------
G--p.m-----/Palm mute all\----/-p.m.-\---------------------------------
D--0-0-----2p0-0-0-2p0-0-0----2p0-0-0--3-------------------------------
A--0-0-----2p0-0-0-2p0-0-0----2p0-0-0--3-------------------------------
D--0-0-----2p0-0-0-2p0-0-0----2p0-0-0--3-------------------------------

Verse
[ Tab from: http://www.guitartabs.cc/tabs/p/pantera/becoming_tab.html ]
e----------------------------------------------------------------------
B----------------------------------------------------------------------
G----------------------------------------------------------------------
D--0-1-0-0-1-0-0-1-0-0-1-3---------------------------------------------
A--0-1-0-0-1-0-0-1-0-0-1-3---------------------------------------------
D--0-1-0-0-1-0-0-1-0-0-1-3---------------------------------------------

Next Riff

e----------------------------------------------------------------------
B----------------------------------------------------------------------
G------P.M---------8b--p.m---------------------------------------------
D--7-5-3-3-0---7-7-----3-3--0------------------------------------------
A--7-5-3-3-0---7-7-----3-3--0------------------------------------------
D--7-5-3-3-0---7-7-----3-3--0------------------------------------------

solo Note: Hit the 12 and move the ring pedal foreward you may have to 
pluck the notes more times than noted.

e----------------------------------------------------------------------
B----------------------------------------------------------------------
G--12~-12~-12~-12~--9~-9~-9~-9~--13~-14~-15~-16~-17~----------------
D----------------------------------------------------------------------
A----------------------------------------------------------------------
D----------------------------------------------------------------------

Outro

e----------------------------------------------------------------------
B----------------------------------------------------------------------
G----------------------------------------------------------------------
D--0-1--0-1--0-1--0-1-3------------------------------------------------
A--0-1--0-1--0-1--0-1-3------------------------------------------------
D--0-1--0-1--0-1--0-1-3------------------------------------------------

I hope this has been helpful, and to the artist of the other becoming that 
is posted everywhere i give you props for trying to tab the song, i used 
your tab as a reference.
Comments