Pantera - Becoming Chords & Tabs

 

Becoming Chords & Tabs

Pantera Chords & Tabs

Version: 3 Type: Bass Tab 0 ratings
1 star 2 stars 3 stars 4 stars 5 stars
comments

Becoming Bass Tab

   
Tabbed by Lucas

Pantera: Becoming
Tune 1  step down: c# f# b e

Intro
|-------------------------------------------|
|-------------------------------------------|
|-------------------------------------------|
|-0-0-0--0-0-0--0-0-0--0-0-0--0-0-0--0-0-0--|

Riffi1 4x
|----------------------------|
|----------------------------|
|-----2------------2---------|
|-0-0---0-1-0--0-0---0-1-3-4-|
[ Tab from: http://www.guitartabs.cc/tabs/p/pantera/becoming_btab_ver_3.html ]
Verse 4x
|------------------------|
|------------------------|
|------------------------|
|-0-0-0070-0070-0070-1/4-|

Riffi1 4x

Chorus 2x
|-----------------------|
|-----------------------|
|---------6----------6--|
|-8-7-1-0----876-1-0----|

Riffi2
|-------------------|
|-------------------|
|-------------------|
|-0-0-0--0-0-0--0-0-|

Riffi1 4x
Verse 4x
Riffi1 4x
Chorus 3x
Riffi2 2x(?)
Solo 4x(same as riffi1)
Riffi2
Chorus 3x
Intro 
Riffi1 4x

Outro
--------------------------------------------|
--------------------------------------------|
--------------------------------------------|
-0-0--0-0--0-0--0-3-4--0-0--0-0--0-0--0-3-4-|
Comments