Pantera - 25 Years Chords & Tabs

 

25 Years Chords & Tabs

Pantera Chords & Tabs

Version: 1 Type: Bass Tab 0 ratings
1 star 2 stars 3 stars 4 stars 5 stars
comments

25 Years Bass Tab

   
tabbed by robbie

tuning eb ab db gb
                                                              
                                                       
|-----------------------------------------------------------5-----|
|------------------------------------7---5--------------5---------| part 1 
|------7---5------------5---------------------5---7---------------| of the
|--0------------5---7--------3---5--------------------------------| opening riff


[ Tab from: http://www.guitartabs.cc/tabs/p/pantera/25_years_btab.html ]
|--------------------------------------------------------------------|
|------------------------------------7---5---------------------------|
|------7---5------------5---------------------7----------------------|
|--0------------5---7--------3---5---------------------3--2--1-------|




|--------------------------------|------------------------------------|
|--------------------------------|------------------------------------|
|--------------------------------|------------------------------------|
|--0---0-0------0--0--0---3/15---|--10\\3//5--------------------------|

|--------------------------------------------------------------------|
|--------------------------------------------------------------------|
|--------------------------------------------------------------------|
|---0--0--0--0--0--0--0--0--0--0--0--0--0--0--0--0-----10\\3//5------|



thats pretty much it

Comments