Pantera - 13 Steps To Nowhere Chords & Tabs

 

13 Steps To Nowhere Chords & Tabs

Pantera Chords & Tabs

Version: 2 Type: Bass Tab 0 ratings
1 star 2 stars 3 stars 4 stars 5 stars
comments

13 Steps To Nowhere Bass Tab

                           13 Steps To Nowhere
                                 Pantera

Tuning: Standard
^ - bend
r - let ring
pm - palm mute
/ - slide up
\ - slide down
|........| - play above fast and only pick the first number in a set of three for 
6-7-8 pluck the 6.


intro
------------|
------------|
------------|
-0r---3r\0r-|x4

intro 2
----------------------------------------------------------------|
----------------------------------------------------------------|
-------7-8-9--------9-10-11----------11-12-13----------13-14-15-|
-6-7-8-------8-9-10---------10-11-12----------12-13-14----------|
|...............................................................|

verse
------------------------------------------------------|
------------------------------------------------------|
---------------------------------7-8-9--------9-10-11-|
-0---3\1--0-1/3-1/3-|-0-3--6-7-8-------8-9-10---------|
                          |...........................|
[ Tab from: http://www.guitartabs.cc/tabs/p/pantera/13_steps_to_nowhere_btab_ver_2.html ]
chorus
----------------------------------|
----------------------------------|
----------------------------------| !!13,13,13,13,13,13,13 steps!!!
-4-4--4-4--4-4--4-4--4-4--4-4-4pm-|


outro 1  | outro 2
---------|----------|
---------|----------|   speed up and slow down when needed
---------|----------|
-5-3-7-5-|-5-3-7-3^-|   !!!Leads to nowhere!!

outro 3
---------|
---------|
---------|
-0-x-1-4-|  !!!the black lash dislocates!!!


solo
---------|
---------|
---------|
-5-3-7-5-| this is played through the solo

outro 4
-----------------------------------------------------------------------------|
-----------------------------------------------------------------------------|
-----------------------------------------------------------------------------|
-11-12-13-11-12-13-11-12-13-11-12-13-0-3-11-12-13-11-12-13-11-12-13-11-12-13-|
|...................................|   |.................................|


order:
intro x4
intro2 x1
verse x4
chorus x1
intro x4
intro x1
verse x4
chorus x1
outro1 x 1
outro3 x8
outro2 x1
outro3 x8
outro1 x1
outro3 x8
outro2 x1
outro3 x8
outro1 x2
solo x10
outro4 x4
chorus x1
Comments