Panic Attack - Heart Attack Chords & Tabs

 

Heart Attack Chords & Tabs

Panic Attack Chords & Tabs

Version: 1 Type: Tab 0 ratings
1 star 2 stars 3 stars 4 stars 5 stars
comments

Heart Attack Tab

Song Title: Heart Attack
1st Guitar: EADGBe
2nd Guitar: EADGBe

INTRO

Guitar 1

e|----------------------------------|
B|----------------------------------|
G|----------------2-2-2-2-2---------|
D|-4-4-4-4-4------2-2-2-2-2-x4------|  x2
A|-4-4-4-4-4-x4---0-0-0-0-0---------|
E|-2-2-2-2-2------------------------|

Guitar 2

e|----------------------------------------------------------|
B|-15^------------------------------------------------------|
G|---------------------2-2-5-2-4-x4----------2-2-5-2-4-x2---|
D|------2-2-5-2-4-x4----------------2-2-5-2-4---------------|
A|----------------------------------------------------------|
E|----------------------------------------------------------|

VERSE
The verse is the intro palm muted

CHORUS

e|--------------------------------------------|
B|--------------------------------------------|
G|-----------2-2-2-2-2-4-4-4-4-4-2-2-2-2-2----|
D|-4-4-4-4-4-2-2-2-2-2-4-4-4-4-4-2-2-2-2-2----|  x6 (each guitar plays total
A|-4-4-4-4-4-0-0-0-0-0-2-2-2-2-2-0-0-0-0-0----|  6 times)
E|-2-2-2-2-2----------------------------------|
Verse is played 2 times by Guitar 1 then Guitar 2 joins in and after Guitar 2 plays it twice
Guitar 1 cuts out and so on.

SOLO 1
[ Tab from: http://www.guitartabs.cc/tabs/p/panic_attack/heart_attack_tab.html ]
e|--------------------------------------------------------------------|
B|--------------------------15^-15-13----13-15-13h15-15^-13----13-15--|
G|-------12-14-14^-14-12-x2-----------14--------------------14--------|
D|-12h14--------------------------------------------------------------|
A|--------------------------------------------------------------------|
E|--------------------------------------------------------------------|

e|------------------------------------------------|
B|-15^-15-13----13-15-15h17p15-17^-17-15-13-------|
G|-----------14-----------------------------14----|
D|------------------------------------------------|
A|------------------------------------------------|
E|------------------------------------------------|

SOLO 2

e|-----------------------------15-17^-17-15-12-12^-12-10--------|
B|-------13-15-17^-15h17p15-17--------------10-----------12-----|
G|-13/15--------------------------------------------------------|
D|--------------------------------------------------------------|
A|--------------------------------------------------------------|
E|--------------------------------------------------------------|


e|-12p10-------6-8^-8-6---8p6--------------------------|
B|-------12-x2-8--------8-----8-x2-6h8-8-6h8-8-6h8-8---|
G|-----------------------------------------------------|
D|-----------------------------------------------------|
A|-----------------------------------------------------|
E|-----------------------------------------------------|

OUTRO
Chorus chords x2
Guitar 2- after chords B|-15^---
Comments