Panic At The Disco - Lying Is The Most Fun A Girl Can Have Chords & Tabs

 

Lying Is The Most Fun A Girl Can Have Chords & Tabs

Panic At The Disco Chords & Tabs

Version: 1 Type: Tab 2 ratings
1 star 2 stars 3 stars 4 stars 5 stars
comments

Lying Is The Most Fun A Girl Can Have Tab

Intro:
Guitar 1:
(0:00)
e|---------------------|---------------------|-----------------|-----------------|
B|---------------------|---------------------|-----------------|-----------------|
G|----8----8----8----8-|----8----8----8----8-|---5---5---5---5-|---5---5---5---5-|
D|-10---10---10---10---|-10---10---10---10---|-6---6---6---6---|-6---6---6---6---|
A|---------------------|---------------------|-----------------|-----------------|
D|---------------------|---------------------|-----------------|-----------------|
PM .  . .  . .  . .  .   .  . .  . .  . .  .   . . . . . . . .   . . . . . . . . 

Guitar 2:
(0:15)
e|-10-11--------------|----------------------|-10-11-----------|-----------------|
B|-------11~----------|----------------------|-------11-9--8~--|-----------------|
G|--------------------|----------------------|-----------------|-----------------|
D|--------------------|----------------------|-----------------|-----------------|
A|--------------------|----------------------|-----------------|-----------------|
D|--------------------|----------------------|-----------------|-----------------|

Guitar 1:
(0:31)
e|-----------------|
B|-----------------|
G|-----------------|
D|-6~--------------|
A|-6~--------------|
D|-6~--------------|


Pre-chorus:
(0:35)
e|-----------------|-----------------|
B|-----------------|-----------------|
G|-----------------|-----------------|
D|-3-3-3-3-3-3-3-3-|-3-3-3-3-3-3-3-3-|
A|-3-3-3-3-3-3-3-3-|-3-3-3-3-3-3-3-3-|
D|-3-3-3-3-3-3-3-3-|-3-3-3-3-3-3-3-3-|

Chorus:
(0:39)
e|-------------------------|-----------------|-----------------|-----------------|
B|-------------------------|-----------------|-----------------|-----------------|
G|-------------------------|-----------------|-8-8-8-8-8-8-8-8-|-8-8-8-8-8-8-8-8-|
D|-10-10-10-10-10-10-10-10-|-8-8-8-8-8-8-8-8-|-6-6-6-6-6-6-6-6-|-6-6-6-6-6-6-6-6-|
A|-10-10-10-10-10-10-10-10-|-8-8-8-8-8-8-8-8-|-6-6-6-6-6-6-6-6-|-6-6-6-6-6-6-6-6-|
D|-10-10-10-10-10-10-10-10-|-8-8-8-8-8-8-8-8-|-6-6-6-6-6-6-6-6-|-6-6-6-6-6-6-6-6-|

e|-------------------------|-----------------|-----------------|-----------------|
B|-------------------------|-----------------|-----------------|-----------------|
G|-------------------------|-----------------|-8-8-8-8-8-8-8-8-|-8-8-8-8-8-8-8-8-|
D|-10-10-10-10-10-10-10-10-|-8-8-8-8-8-8-8-8-|-6-6-6-6-6-6-6-6-|-6-6-6-6-6-6-6-6-|
A|-10-10-10-10-10-10-10-10-|-8-8-8-8-8-8-8-8-|-6-6-6-6-6-6-6-6-|-6-6-6-6-6-6-6-6-|
D|-10-10-10-10-10-10-10-10-|-8-8-8-8-8-8-8-8-|-6-6-6-6-6-6-6-6-|-6-6-6-6-6-6-6-6-|


Verse 2:
Guitar 1:
(0:56)
e|-------------------------|-------------------------|-----------------|-----------------|
B|-------------------------|-------------------------|-----------------|-----------------|
G|-------------------------|-------------------------|-8-8-8-8-8-8-8-8-|-8-8-8-8---------|
D|-10-10-10-10-10-10-10-10-|-10-10-10-10-10-10-10-10-|-6-6-6-6-6-6-6-6-|-6-6-6-6---------|
A|-10-10-10-10-10-10-10-10-|-10-10-10-10-10-10-10-10-|-6-6-6-6-6-6-6-6-|-6-6-6-6---------|
D|-10-10-10-10-10-10-10-10-|-10-10-10-10-10-10-10-10-|-6-6-6-6-6-6-6-6-|-6-6-6-6---------|

(1:03)
e|---------------------|---------------------|-----------------|-----------------|
B|---------------------|---------------------|-----------------|-----------------|
G|----8----8----8----8-|----8----8----8----8-|---5---5---5---5-|---5---5---5---5-|
D|-10---10---10---10---|-10---10---10---10---|-6---6---6---6---|-6---6---6---6---|
A|---------------------|---------------------|-----------------|-----------------|
D|---------------------|---------------------|-----------------|-----------------|
PM .  . .  . .  . .  .   .  . .  . .  . .  .   . . . . . . . .   . . . . . . . . 

Guitar 2:
(1:10)
e|-10-11--------------|----------------------|-10-11-----------|-----------------|
B|-------11~----------|----------------------|-------11-9--8~--|-----------------|
G|--------------------|----------------------|-----------------|-----------------|
D|--------------------|----------------------|-----------------|-----------------|
A|--------------------|----------------------|-----------------|-----------------|
D|--------------------|----------------------|-----------------|-----------------|


Pre-chorus:
(1:18)
e|-----------------|-----------------|
B|-----------------|-----------------|
G|-----------------|-----------------|
D|-3-3-3-3-3-3-3-3-|-3-3-3-3-3-3-3-3-|
A|-3-3-3-3-3-3-3-3-|-3-3-3-3-3-3-3-3-|
D|-3-3-3-3-3-3-3-3-|-3-3-3-3-3-3-3-3-|

Chorus:
(1:22)
e|-------------------------|-----------------|-----------------|-----------------|
B|-------------------------|-----------------|-----------------|-----------------|
G|-------------------------|-----------------|-8-8-8-8-8-8-8-8-|-8-8-8-8-8-8-8-8-|
D|-10-10-10-10-10-10-10-10-|-8-8-8-8-8-8-8-8-|-6-6-6-6-6-6-6-6-|-6-6-6-6-6-6-6-6-|
A|-10-10-10-10-10-10-10-10-|-8-8-8-8-8-8-8-8-|-6-6-6-6-6-6-6-6-|-6-6-6-6-6-6-6-6-|
D|-10-10-10-10-10-10-10-10-|-8-8-8-8-8-8-8-8-|-6-6-6-6-6-6-6-6-|-6-6-6-6-6-6-6-6-|

e|-------------------------|-----------------|-----------------|-----------------|
B|-------------------------|-----------------|-----------------|-----------------|
G|-------------------------|-----------------|-8-8-8-8-8-8-8-8-|-8-8-8-8-8-8-8-8-|
D|-10-10-10-10-10-10-10-10-|-8-8-8-8-8-8-8-8-|-6-6-6-6-6-6-6-6-|-6-6-6-6-6-6-6-6-|
A|-10-10-10-10-10-10-10-10-|-8-8-8-8-8-8-8-8-|-6-6-6-6-6-6-6-6-|-6-6-6-6-6-6-6-6-|
D|-10-10-10-10-10-10-10-10-|-8-8-8-8-8-8-8-8-|-6-6-6-6-6-6-6-6-|-6-6-6-6-6-6-6-6-|

[ Tab from: http://www.guitartabs.cc/tabs/p/panic_at_the_disco/lying_is_the_most_fun_a_girl_can_have_tab.html ]
Breakdown:
Guitar 1:
(1:38)
e|-----------------|--------------------|------------------------|-----------------|-----------------|
B|-----------------|--------------------|------------------------|-----------------|-----------------|
G|-----------------|--------------------|-8--8-8-8-8--8-8--8-8-8-|-----------------|-----------------|
D|-10--10-10-10-10-|-10-10--10-10-10-10-|-6--6-6-6-6--6-6--6-6-6-|-3-3-3-3-3-3-3-3-|-3-3-3-3-3-3-3-3-|
A|-10--10-10-10-10-|-10-10--10-10-10-10-|-6--6-6-6-6--6-6--6-6-6-|-3-3-3-3-3-3-3-3-|-3-3-3-3-3-3-3-3-|
D|-10--10-10-10-10-|-9--9---9--9--9--9--|-6--6-6-6-6--6-6--6-6-6-|-3-3-3-3-3-3-3-3-|-3-3-3-3-3-3-3-3-|

Guitar 2:
(1:49)                                      2nd Time
e|--------------|-------------|----------||-10-11-----|-10-11----------|
B|-------15-----|------11-----|-----8-9--||-------11~-|-------11-9--8~-|
G|----12----12--|---10----10--|---8------||-----------|----------------|
D|-10-----------|-8-----------|-6--------||-----------|----------------|
A|--------------|-------------|----------||-----------|----------------|
D|--------------|-------------|----------||-----------|----------------|


Verse:
Guitar 1:
(1:57)
e|---------------------|---------------------|-----------------|-----------------|
B|---------------------|---------------------|-----------------|-----------------|
G|----8----8----8----8-|----8----8----8----8-|---5---5---5---5-|---5---5---5---5-|
D|-10---10---10---10---|-10---10---10---10---|-6---6---6---6---|-6---6---6---6---|
A|---------------------|---------------------|-----------------|-----------------|
D|---------------------|---------------------|-----------------|-----------------|
PM .  . .  . .  . .  .   .  . .  . .  . .  .   . . . . . . . .   . . . . . . . . 

Guitar 2:
(2:03)
e|-10-11--------------|----------------------|-10-11-----------|-----------------|
B|-------11~----------|----------------------|-------11-9--8~--|-----------------|
G|--------------------|----------------------|-----------------|-----------------|
D|--------------------|----------------------|-----------------|-----------------|
A|--------------------|----------------------|-----------------|-----------------|
D|--------------------|----------------------|-----------------|-----------------|

Guitar 1:
(2:12)
e|----------------|
B|----------------|
G|-8-8--8-8--8-8~-|
D|-6-6--6-6--6-6~-|
A|-6-6--6-6--6-6~-|
D|-6-6--6-6--6-6~-|


Pre-chorus:
(2:16)
e|-----------------|-----------------|
B|-----------------|-----------------|
G|-----------------|-----------------|
D|-3-3-3-3-3-3-3-3-|-3-3-3-3-3-3-3-3-|
A|-3-3-3-3-3-3-3-3-|-3-3-3-3-3-3-3-3-|
D|-3-3-3-3-3-3-3-3-|-3-3-3-3-3-3-3-3-|

Chorus:
Guitar 1:
(2:20)
e|-------------------------|-----------------|-----------------|-----------------|
B|-------------------------|-----------------|-----------------|-----------------|
G|-------------------------|-----------------|-8-8-8-8-8-8-8-8-|-8-8-8-8-8-8-8-8-|
D|-10-10-10-10-10-10-10-10-|-8-8-8-8-8-8-8-8-|-6-6-6-6-6-6-6-6-|-6-6-6-6-6-6-6-6-|
A|-10-10-10-10-10-10-10-10-|-8-8-8-8-8-8-8-8-|-6-6-6-6-6-6-6-6-|-6-6-6-6-6-6-6-6-|
D|-10-10-10-10-10-10-10-10-|-8-8-8-8-8-8-8-8-|-6-6-6-6-6-6-6-6-|-6-6-6-6-6-6-6-6-|

e|-------------------------|-----------------|-----------------|-----------------|
B|-------------------------|-----------------|-----------------|-----------------|
G|-------------------------|-----------------|-8-8-8-8-8-8-8-8-|-8-8-8-8-8-8-8-8-|
D|-10-10-10-10-10-10-10-10-|-8-8-8-8-8-8-8-8-|-6-6-6-6-6-6-6-6-|-6-6-6-6-6-6-6-6-|
A|-10-10-10-10-10-10-10-10-|-8-8-8-8-8-8-8-8-|-6-6-6-6-6-6-6-6-|-6-6-6-6-6-6-6-6-|
D|-10-10-10-10-10-10-10-10-|-8-8-8-8-8-8-8-8-|-6-6-6-6-6-6-6-6-|-6-6-6-6-6-6-6-6-|

Guitar 2:
(2:23)
e|-10-11--------------|----------------------|-10-11----------------|----------------------|
B|-------11-9--8~-----|----------------------|-------11-9--8~-------|----------------------|
G|--------------------|----------------------|----------------------|----------------------|
D|--------------------|----------------------|----------------------|----------------------|
A|--------------------|----------------------|----------------------|----------------------|
D|--------------------|----------------------|----------------------|----------------------|


Ending:
(2:35)
e|-------------------------|-------------------------|-----------------|-----------------|
B|-------------------------|-------------------------|-----------------|-----------------|
G|-------------------------|-------------------------|-8-8-8-8-8-8-8-8-|-8-8-8-8-8-8-8-8-|
D|-10-10-10-10-10-10-10-10-|-10-10-10-10-10-10-10-10-|-6-6-6-6-6-6-6-6-|-6-6-6-6-6-6-6-6-|
A|-10-10-10-10-10-10-10-10-|-10-10-10-10-10-10-10-10-|-6-6-6-6-6-6-6-6-|-6-6-6-6-6-6-6-6-|
D|-10-10-10-10-10-10-10-10-|-9--9--9--9--9--9--9--9--|-6-6-6-6-6-6-6-6-|-6-6-6-6-6-6-6-6-|

e|-------------------------|-------------------------|-----------------|-----------------|
B|-------------------------|-------------------------|-----------------|-----------------|
G|-------------------------|-------------------------|-8-8-8-8-8-8-8-8-|-8-8-8-8-8-8-8-8-|
D|-10-10-10-10-10-10-10-10-|-10-10-10-10-10-10-10-10-|-6-6-6-6-6-6-6-6-|-6-6-6-6-6-6-6-6-|
A|-10-10-10-10-10-10-10-10-|-10-10-10-10-10-10-10-10-|-6-6-6-6-6-6-6-6-|-6-6-6-6-6-6-6-6-|
D|-10-10-10-10-10-10-10-10-|-9--9--9--9--9--9--9--9--|-6-6-6-6-6-6-6-6-|-6-6-6-6-6-6-6-6-|

(2:50)
e|--------------|-------------|----------|
B|-------15-----|------11-----|-----8-9--|
G|----12----12--|---10----10--|---8------|
D|-10-----------|-8-----------|-6--------|
A|--------------|-------------|----------|
D|--------------|-------------|----------|

e|--------------|-------------|----------|
B|-------15-----|------11-----|-----8-9--|
G|----12----12--|---10----10--|---8------|
D|-10-----------|-8-----------|-6--------|
A|--------------|-------------|----------|
D|--------------|-------------|----------|
Comments