Panic - Away From Here Chords & Tabs

 

Away From Here Chords & Tabs

Panic Chords & Tabs

Version: 1 Type: Tab 0 ratings
1 star 2 stars 3 stars 4 stars 5 stars
comments

Away From Here Tab

   


Song: Away From Here
Artist: Panic
Tabbed By: Joseph Oliver
(Part A)



 X-----------------------------------------------------------------------------------
 X-----------------------------------------------------------------------------------
 X-----------------------------------------------------------------------------------
 X---------21-21-----------------21---------21-21-21-21-21-21-21-21-------
 X-----21---------21---------21---------21-----21-21-21-21-21-21-21-------
 X-21-----------------21-21---------21---------21-21-21-21-21-21-21-------


(Part B)

 X-7-7-7-7-7-7-7-7-7-7-7-7-7-7------------------------------------------------
 X-6-6-6-6-6-6-6-6-6-6-6-6-6-6------------------------------------------------
 X-5-5-5-5-5-5-5-5-5-5-5-5-5-5------------------------------------------------
 X-6-6-6-6-6-6-6-6-6-6-6-6-6-6------------------------------------------------
 X-0-0-0-0-0-0-0-0-0-0-0-0-0-0------------------------------------------------
 X-6-6-6-6-6-6-6-6-6-6-6-6-6-6------------------------------------------------


(Part C “Chorus”)

[ Tab from: http://www.guitartabs.cc/tabs/p/panic/away_from_here_tab.html ]
 X-----------------------------------------------
 X-----------------------------------------------
 X-----------------------------------------------
 X-0-0-0-7-0-0-0-0-10-10-0-9-9-9-2-3----
 X-0-0-0-7-0-0-0-0-10-10-0-9-9-9-2-3----
 X-0-0-0-7-0-0-0-0-10-10-0-9-9-9-2-3---- Repeat As Many times as you need.





Lyrics:


Part A=I going away, so far away, from my home,
Part A=Until my end, a break in the road, I’m lost and the shallows have rose,
Part A=And in this time, I hope, you have learned you lesson, 
Part B= Threw, and threw my times of sorrow, away from from here, and threw my home!
Part B= times…burn away threw my eyes, times, burn away threw mine!
Chorus: Far away from my home, far away back to home, going miles, not for sure, if I was lost, if I was cured! Still traveling not knowing if I was good enough for you or not!
Part A=I’m going away, so far away, from my home,
Part A= Until my end, a break in the road, I’m lost and the shallows have rose,
Part A= and in this time, I hope, you have learned your lesson,
Part B=Threw, and threw my times of sorrow, away from here, and threw my home!
Part B= times…burn away threw my eyes, times, burn away threw mine!
Chorus: 

This is pretty much how i play it, you dudes might play it differently but it is probobly wrong, cause i write the song! Ha,ha!


 





Comments