Panda - Ya No Jalaba Chords & Tabs

 

Ya No Jalaba Chords & Tabs

Panda Chords & Tabs

Version: 2 Type: Tab 0 ratings
1 star 2 stars 3 stars 4 stars 5 stars
comments

Ya No Jalaba Tab

   
Panda
Ya no Jalaba
La Revancha del Principe Charro
Tabbed by:Wicho182

Afinacion Estandar e b g d a e 

GUITARRA 1
Intro 
e|-----------------------------------------|
b|-----------------------------------------|
g|-----------------------------------------|
d|-4-44444444------------------------------|
a|-2-22222222-66666666-22222222-4444444444-|
E|------------44444444-00000000-2222222222-|x1
     ........ ........ ........ ........

e|-----------------------|
b|-----------------------|
g|-----------------------|
d|------------4444444444-|
a|-66666-4444-2222222222-|
E|-44444-2222------------|x3

e|--------------|
b|--------------|
g|--------------|
d|------------4-|
a|-66666-4444-2-|
E|-44444-2222---|x1

Verso 1 -Sin guitarra- 
Bass
G|-----------------------|
D|-----------------------|
A|------------2222222222-|
E|-44444-2222------------|

"Ya no te veia igual..."
e|---------|
b|---------|
g|-8--6--4-|
d|-x--x--x-|
a|-6--4--2-|
E|---------|x4

Coro
e|-------------------------------------|
b|-------------------------------------|
g|-------------------------------------|
d|-44444444----------------------------|
a|-22222222-66666666-22222222-44444444-|
E|----------44444444-00000000-22222222-|x2

Despues del Coro
e|-----------------------|
b|-----------------------|
g|-----------------------|
d|------------4444444444-|
a|-66666-4444-2222222222-|
E|-44444-2222------------|x3

e|--------------|
b|--------------|
g|--------------|
d|------------4-|
a|-66666-4444-2-|
E|-44444-2222---|x1

Verso 2 -Sin guitarra- 
Bass
G|-----------------------|
D|-----------------------|
A|------------2222222222-|
E|-44444-2222------------|

"Tratalo de aceptar y..."
e|---------|
b|---------|
g|-8--6--4-|
d|-6--4--4-|
a|-6--4--2-|
E|---------|x2

Coro
e|-------------------------------------|
b|-------------------------------------|
g|-------------------------------------|
d|-44444444----------------------------|
a|-22222222-66666666-22222222-44444444-|
E|----------44444444-00000000-22222222-|x1

e|-------------------------------------------------------|
b|-------------------------------------------------------|
g|-------------------------------------------------------|
d|-44444444----------------------------------------------|
a|-22222222-66666666-22222222-44444444-2-4-4444444444444-|
E|----------44444444-00000000-22222222-0-2-2222222222222-|x1
                                           .............

Solo
e|-------------------------------------|
b|-------------------------------------|
g|-------------------------------------|
d|-44444444----------------------------|
a|-22222222-66666666-22222222-44444444-|
E|----------44444444-00000000-22222222-|x2

e|--------------------|
b|--------------------|
g|--------------------|
d|------------4-pausa-|
a|-66666-4444-2-pausa-|
E|-44444-2222---------|x2

e|----------------|
b|----------------|
g|----------------|
d|------------4---|
a|-66666-4444-2-4-|
E|-44444-2222---2-|x1

Coro
e|-------------------------------------|
b|-------------------------------------|
g|-------------------------------------|
d|-44444444----------------------------|
a|-22222222-66666666-22222222-44444444-|
E|----------44444444-00000000-22222222-|x1

e|-------------------------------------|
b|-------------------------------------|
g|-------------------------------------|
d|-44444444----------------------------|
a|-22222222-66666666-22222222-44444444-|
E|----------44444444-00000000-22222222-|x1
                              ........
Outro
e|-------------------------------------|
b|-------------------------------------|
g|-------------------------------------|
d|-44444444----------------------------|
a|-22222222-66666666-22222222-44444444-|
E|----------44444444-00000000-22222222-|x1

e|------------------------------------|
b|------------------------------------|
g|------------------------------------|
d|-44444444---------------------------|
a|-22222222-66666666-22222222-4-2-6-9-|
E|----------44444444-00000000-2-0-4-7-|x1

같같같같같같같같같같같같같같같같같같같같같같같같같같같같같같같같같같같같같같같같같같같같
GUITARRA 2   
Intro 
e|-------------------------9----9----9----9----11----11----11----11-----12----12----14----14----|
b|-12----12----12----12------12---12---12---12----12----12----12----12-----12----12----12----12-|
g|----11----11----11----11----------------------------------------------------------------------|
d|----------------------------------------------------------------------------------------------|
a|----------------------------------------------------------------------------------------------|
E|----------------------------------------------------------------------------------------------|x1
[ Tab from: http://www.guitartabs.cc/tabs/p/panda/ya_no_jalaba_tab_ver_2.html ]
e|-11-14-11-------14-----14-11-------14----|
b|----------12-14----12--------12-14----12-|
g|-----------------------------------------|
d|-----------------------------------------|
a|-----------------------------------------|
E|-----------------------------------------|x3

e|-11-14-11-------14-------------------|
b|----------12-14----12----------------|
g|----------------------11-8------11---|
d|---------------------------9-11----9-|
a|-------------------------------------|
E|-------------------------------------|x1

Verso 1 -Sin guitarra-
Bass
G|-----------------------|
D|-----------------------|
A|------------2222222222-|
E|-44444-2222------------|

"Ya no te veia igual..."
e|-11--9--7--14-11-------14----|
b|-----------------12-14----12-|
g|-----------------------------|
d|-----------------------------|
a|-----------------------------|
E|-----------------------------|x3

e|-11--9--7-|
b|----------|
g|----------|
d|----------|
a|----------|
E|----------|x1

Coro
e|-------------------------------------|
b|-------------------------------------|
g|-------------------------------------|
d|-44444444----------------------------|
a|-22222222-66666666-22222222-44444444-|
E|----------44444444-00000000-22222222-|x2

Despues del coro
e|-11-14-11-------14-----14-11-------14----|
b|----------12-14----12--------12-14----12-|
g|-----------------------------------------|
d|-----------------------------------------|
a|-----------------------------------------|
E|-----------------------------------------|x3

e|-11-14-11-------14-------------------|
b|----------12-14----12----------------|
g|----------------------11-8------11---|
d|---------------------------9-11----9-|
a|-------------------------------------|
E|-------------------------------------|x1

Verso 2 -Sin guitarra- 
Bass
G|-----------------------|
D|-----------------------|
A|------------2222222222-|
E|-44444-2222------------|

"Tratalo de aceptar y..."
e|-11--9--7--14-11-------14----11--9--7-|
b|-----------------12-14----12----------|
g|--------------------------------------|
d|--------------------------------------|
a|--------------------------------------|
E|--------------------------------------|x1

Coro
e|-------------------------------------|
b|-------------------------------------|
g|-------------------------------------|
d|-44444444----------------------------|
a|-22222222-66666666-22222222-44444444-|
E|----------44444444-00000000-22222222-|x1

e|-----------------------------------------|
b|-----------------------------------------|
g|-----------------------------------------|
d|-44444444--------------------------------|
a|-22222222-66666666-22222222-44444444-2-4-|
E|----------44444444-00000000-22222222-0-2-|x1

Solo
e|-7-11-9-7----------12-11----------------11-9-7----------12-14-12-11-9-7-9-7-6-|
b|----------12-14-12-------12-14-12-11-12--------12-14-12-----------------------|
g|------------------------------------------------------------------------------|
d|------------------------------------------------------------------------------|
a|------------------------------------------------------------------------------|
E|------------------------------------------------------------------------------|x1

e|-11-14-11-------14-----14-11-------14----|
b|----------12-14----12--------12-14----12-|
g|-----------------------------------------|
d|-----------------------------------------|
a|-----------------------------------------|
E|-----------------------------------------|x2

e|-11-14-11-------14-----------|
b|----------12-14----12-14-12v-|
g|-----------------------------|
d|-----------------------------|
a|-----------------------------|
E|-----------------------------|x1

Coro
e|-------------------------------------|
b|-------------------------------------|
g|-------------------------------------|
d|-44444444----------------------------|
a|-22222222-66666666-22222222-44444444-|
E|----------44444444-00000000-22222222-|x1

e|-------------------------------------|
b|-------------------------------------|
g|-------------------------------------|
d|-44444444----------------------------|
a|-22222222-66666666-22222222-44444444-|
E|----------44444444-00000000-22222222-|x1
                              ........

Outro
e|-11--11-9----11-9----11-9----11-9-11--14-12-11--14-12-11--14-12-11h12-11-9-7-|
b|----------12------12------12-------------------------------------------------|
g|-----------------------------------------------------------------------------|
d|-----------------------------------------------------------------------------|
a|-----------------------------------------------------------------------------|
E|-----------------------------------------------------------------------------|x1

Parece que todo esta bien, pero por cualqueir correxion, duda, comentario o
babosada hay les va el mail pndblink182@hotmail.com

PUNK NOT DEAD!!!
ARRIBA EL PUNK!!!
Comments