Panda - Ya No Jalaba Chords & Tabs

 

Ya No Jalaba Chords & Tabs

Panda Chords & Tabs

Version: 1 Type: Tab 0 ratings
1 star 2 stars 3 stars 4 stars 5 stars
comments

Ya No Jalaba Tab

This is a very good song from The Mexican Group Panda 

ORGULLOSAMENTE REGIOS!

This Is the basic guitar in song of course bass is the principal there but this is good:


At The Begining: 

E|--7-7-7-7-7-7---9-9-9-9-9-9-9-9---11-11-11-11-11-11-11---12-12-12-12------
B|--------------------------------------------------------------------------
G|--------------------------------------------------------------------------
D|--------------------------------------------------------------------------
A|--------------------------------------------------------------------------
E|--------------------------------------------------------------------------
[ Tab from: http://www.guitartabs.cc/tabs/p/panda/ya_no_jalaba_tab.html ]
E|--14-14-14-14-----11-14-11-------14----14-11-------14--<-REPEAT----------|
B|---------------------------12-14----12-------12-14-----<-REPEAT----------|
G|-------------------------------------------------------------------------|
D|-------------------------------------------------------------------------|
A|-------------------------------------------------------------------------|
E|-------------------------------------------------------------------------|


and then in the chorus

E|---------4-2---------4-2-------2----------2--------|
B|-4-2-4-------4-2-4-------2-2-4---4--2-2-4---4--2---|
G|-------4-----------4-----------------------------4-|
D|---------------------------------------------------|
A|---------------------------------------------------|
E|---------------------------------------------------|

sergio_castillo_y2k4@hotmail.com
Comments