Panda - Quisiera No Pensar Chords & Tabs

 

Quisiera No Pensar Chords & Tabs

Panda Chords & Tabs

Version: 2 Type: Tab 0 ratings
1 star 2 stars 3 stars 4 stars 5 stars
comments

Quisiera No Pensar Tab

   
Panda 
Quisiera no Pensar
La Revancha del Principe Charro

Intro I
Guitarra 1
e|-----------------|
b|-----------------|
g|-----------------|
d|-----------------|
a|-44-777----------|
E|--------444-55-4-|x8

Guitarra 2
e|---------------------------------------------|
b|---------------------------------------------|
g|-6-------------------6-----6-----6-----------|
d|-x-(turn up volumen)-6-----6-----6-----------|
a|-4-------------------4-----4-----4-slide>>>>-|
E|---------------------------------------------|x1

despues la gtr. 2 hace lo mismo ke la gtr. 1 cuatro veces

Intro II
Guitarra 2 (violin)
e|-------------4-------|-------------------|
b|-9-7-6-4-6-7---6-----|-6-7-9-4---7-6-7-4-|
g|-----------------6-3-|---------6---------|
d|---------------------|-------------------|
a|---------------------|-------------------|
E|---------------------|-------------------|x2

Guitarra 1
e|-----------------------------------------|
b|-----------------------------------------|
g|-6666----------------6666-3333-----------|
d|-6666-6666-3333-4444-6666-3333-4444-6666-|
a|-4444-6666-3333-4444-4444-1111-4444-6666-|
E|------4444-1111-2222-----------2222-4444-|x2

Verso I
Bass
|-----------------------------------------|
|-----------------------------------------|
|-4444----------------4444-1111-----------|
|------4444-1111-2222-----------2222-4444-|x2

Coro(Y ojala ke mis heridas...)
2 guitarras 
e|---------------------|
b|---------------------|
g|-----------6666------|
d|-4444-6666-6666-8888-|
a|-4444-6666-4444-8888-|
E|-2222-4444------6666-|x2

2 guitarras 
"kisiera olvidarme del dolor..."
e|--------------------------------------------|
b|--------------------------------------------|
g|--------------------------------------------|
d|-4444-6666-66666-55555-33333----------------|
a|-4444-6666-44444-33333-11111-66666-444444-6-|
E|-2222-4444-------------------44444-222222-4-|x1
          pm ....  ....  ....  ....  


intro II una vez 
Verso Bass una vez 
[ Tab from: http://www.guitartabs.cc/tabs/p/panda/quisiera_no_pensar_tab_ver_2.html ]
2 guitarras 
"Y ya no despertar..."
e|-----------------------------------------|
b|-----------------------------------------|
g|-6666----------------6666-3333-----------|
d|-6666-6666-3333-4444-6666-3333-4444-6666-|
a|-4444-6666-3333-4444-4444-1111-4444-6666-|
E|------4444-1111-2222-----------2222-4444-|x1

=*Coro, todo igual*=

Interlude
guitarra 1
e|----------------|
b|----------------|
g|-66-------------|
d|-66-66-44-66-88-|
a|-44-66-44-66-88-|
E|----44-22-44-66-|x3

e|-----------------------|
b|-----------------------|
g|-----------------------|
d|-6666-----------666666-|
a|-4444-6666-4444-666666-|
E|------4444-2222-444444-|x1
pm .... .... .... 

No me se la otra guitarra 

=*Coro, todo igual*=

Outro
guitarra 1 
e|-----------------------------------------|
b|-----------------------------------------|
g|-6666----------------6666-3333-----------|
d|-6666-6666-3333-4444-6666-3333-4444-6666-|
a|-4444-6666-3333-4444-4444-1111-4444-6666-|
E|------4444-1111-2222-----------2222-4444-|x3

e|-----------------------------------------|
b|-----------------------------------------|
g|-6666----------------6666-3333-----------|
d|-6666-6666-3333-4444-6666-3333-4444-6666-|
a|-4444-6666-3333-4444-4444-1111-4444-6666-|
E|------4444-1111-2222-----------2222-4444-|x1
   pm                  .... .... .... .... 

Guitarra 2
cuando empieza la 2da vuelta de la gtr. 1 
entra la gtr. 2 haciendo los violines 
e|-------------4-------|-------------------|
b|-9-7-6-4-6-7---6-----|-6-7-9-4---7-6-7-4-|
g|-----------------6-3-|---------6---------|
d|---------------------|-------------------|
a|---------------------|-------------------|
E|---------------------|-------------------|x1

e|-------------4-------|
b|-9-7-6-4-6-7---6-----|
g|-----------------6-3-|
d|---------------------|
a|---------------------|
E|---------------------|x1

e|---------------------|
b|---------------------|
g|-6666-3333-----------|
d|-6666-3333-4444-6666-|
a|-4444-1111-4444-6666-|
E|-----------2222-4444-|x1
pm .... .... .... ....

Es todo, Let's Fuck!!!

e-mail: pndblink182@hotmail.com
Comments