Panda - Muceca Chords & Tabs

 

Muceca Chords & Tabs

Panda Chords & Tabs

Version: 1 Type: Tab 0 ratings
1 star 2 stars 3 stars 4 stars 5 stars
comments

Muceca Tab

   
Principio

--------------------e
--4024-40245424424--b
--------------------g
--------------------d
--------------------a
--------------------e

Guitarra 1
B F# G# Em

--------------------e
--------------------b
--4-----------------g
--4-4--6---2--------d
--2-4--6---2--------a
----2--4---0--------e

Guitarra 2
[ Tab from: http://www.guitartabs.cc/tabs/p/panda/muceca_tab.html ]
-------------------e
-02025424242-------b
-------------------g
-------------------d
-------------------a
-------------------e

Coro
C# G# A# F#

-------------------e
-------------------b
-6-----------------g
-6-6--8---4--------d
-4-6--8---4--------a
---4--6---2--------e

NO ME SE EL REQUINTO,LUEGO SE LOS TRAIGO. SE REPITE LO DE MAS.

ESTE GRUPO ES MUY BUENO,APOYENLOS ESTOS CHAVOS TIENEN FUTURO. jchuy_juarez@hotmail.com
Comments