Panda - Miedo A Las Alturas Chords & Tabs

 

Miedo A Las Alturas Chords & Tabs

Panda Chords & Tabs

Version: 2 Type: Tab 0 ratings
1 star 2 stars 3 stars 4 stars 5 stars
comments

Miedo A Las Alturas Tab

Saludos a toda la raza k le gusta panda ya k tocan chido y son la mejor banda de rock-punk
de mexico y saludos a juancho, migay, toņo, javier, riki, el chanfle y los demas del anglo :p


intro:
0:00 - 0:08
e|---------------------------------------------------------------------|
B|---------------------------------------------------------------------|
G|----4----4--4--------------------------------------------------------|
D|---------------------------------------------------------------------|
A|-444--444--4----2222-4444-44-----------------------------------------|
E|----------------0000-2222-22-----------------------------------------|
   ...  ...  .    .... .... ..

verse:
0:08 - 0:24
e|---------------------------------------------------------------------|
B|---------------------------------------------------------------------|
G|5555-3333--------5555------------------------------------------------|
D|5555-3333--3333--5555------------------------------------------------|(x2)
A|3333-1111--3333--3333------------------------------------------------|
E|-----------1111------------------------------------------------------|

break:
0:25 - 0:33
e|---------------------------------------------------------------------|
B|---------------------------------------------------------------------|
G|4444-4444-44---------------------------------------------------------|(x2)
D|xxxx-xxxx-xx-7777-9999-99--------------------------------------------|
A|4444-4444-44-xxxx-xxxx-xx--------------------------------------------|
E|-------------5555-7777-77--------------------------------------------|

verse:
0:34 - 0:49
e|---------------------------------------------------------------------|
B|---------------------------------------------------------------------|
G|5555-3333--------5555------------------------------------------------|
D|5555-3333--3333--5555------------------------------------------------|(x2)
A|3333-1111--3333--3333------------------------------------------------|
E|-----------1111------------------------------------------------------|
  .... ....  ....  .....


chorus:
0:50 - 1:10
e|---------------------------------------------------------------------|
B|---------------------------------------------------------------------|
G|3~--5~--------------7777---------------------------------------------|
D|3~--5~--3333--5555--7777---------------------------------------------|
A|1~--3~--3333--3333--5555---------------------------------------------|
E|--------1111--3333---------------------------------------------------|
[ Tab from: http://www.guitartabs.cc/tabs/p/panda/miedo_a_las_alturas_tab_ver_2.html ]
e|---------------------------------------------------------------------|
B|---------------------------------------------------------------------|
G|3333-5555-------------7777-------------------------------------------|
D|3333-5555-3333--5555--7777-------------------------------------------|
A|1111-3333-3333--3333--5555-------------------------------------------|
E|----------1111--3333-------------------------------------------------|


break:
1:11 - 1:18
e|---------------------------------------------------------------------|
B|---------------------------------------------------------------------|
G|4444-4444-44---------------------------------------------------------|(x2)
D|xxxx-xxxx-xx-7777-9999-99--------------------------------------------|
A|4444-4444-44-xxxx-xxxx-xx--------------------------------------------|
E|-------------5555-7777-77--------------------------------------------|

interlude:
1:19 - 1:51
e|---------------------------------------------------------------------|
B|--9--9-------7--7-------5--5--5----4--4------------------------------|
G|-7--7--7----5--5--5----3--3--3----2--2--2----------------------------|
D|7--7--7----5--5--5----3--3--3----2--2--2-----------------------------|(x4)
A|---------------------------------------------------------------------|
E|---------------------------------------------------------------------|
  .. .. ..   .. .. ..   .. .. ..   .. .. ..

chorus (x1)
1:52 - 2:12

Interlude 2: (here begins the first guitar and at 2:16 begins the second)
2:13 - 2:21
guitar 1:              guitar 2:
e|---------------------|------------------------------------------------|
B|---------------------|---------12-------------------------------------|
G|------8-9-8----------|-11-13-14--14-13--------------------------------|
D|-9-11---------11-----|------------------------------------------------| 
A|---------------------|------------------------------------------------|  
E|---------------------|------------------------------------------------|


Break
2:21 - 2:29
e|----------------------------------------------------------------------|
B|----------------------------------------------------------------------|
G|15-15-15-15-15-15-15-15-15-15-----------------------------------------|
D|x--x--x--x--x--x--x--x--x--x------------------------------------------|
A|12-12-15-12-12-12-12-12-12-12-----------------------------------------|
E|----------------------------------------------------------------------|

Verse:(x4)



Note:This is myu first tab, so im not sure about it. Koala Rlz!!! @(*o*)@
Comments