Panda - Miedo A Las Alturas Chords & Tabs

 

Miedo A Las Alturas Chords & Tabs

Panda Chords & Tabs

Version: 1 Type: Bass Tab 0 ratings
1 star 2 stars 3 stars 4 stars 5 stars
comments

Miedo A Las Alturas Bass Tab

Para mi fella Barbara de the rippers ojala te lata ponte a rockear chingon amiga y ponle 
a cada nota practica hardcore diario no te des por vencida y pronto seras la mas 
Solo...rockea

Tabbed By : Mario Oscar omertoscar
e-mail: x17_89@hotmail.com

Afinacion: standard
` = dejar sonar la nota=let note ring

  verso: "te acuerdas cuando me dijiste..."
G|---------------------------------------------------------------|
D|---------------------------------------------------------------|
A|-4444444-2-0000000------------0000000--------------------------|
E|-------------------2-0000000-2---------------------------------|

 Fill x2
G|--------------------------------------------|
D|--------------------------------------------|
A|-4444-4444-44-0000-2222-2-------------------|
E|--------------------------------------------|

 Despues: verso otra vez.
[ Tab from: http://www.guitartabs.cc/tabs/p/panda/miedo_a_las_alturas_btab.html ]
 Pre-coro:" y de la muerte yo..."
G|---------------------------------------------------------------------------|
D|---------------------------------------------------------------------------|
A|-0`-2`slide14slide7--------------------------------------------------------|
E|---------------------------------------------------------------------------|

 coro:
G|---------------------------------------------------|
D|---------------------------------------------------|
A|-7777766666-4444444444444-00000000000-2222222222---|
E|---------------------------------------------------|

 Fill otra vez.

  Intervalo "Solos tu y yo..." x2
G|--------------------------------------------------------|
D|---9----------------------------------------------------|
A|-7`-76`64`2`--------------------------------------------|
E|--------------------------------------------------------|

 Pre-coro otra vez
 Coro otra vez
 Fill otra vez

G|----------------------------------|
D|----------------------------------|
A|----------------------------------|
E|-44-444-55-555-44-444-55-55-------|

 Verso hasta que la cancion termine.

Cuerdas banda,que les vaya chido bandera toquen hasta que les revienten las venas de las 
y ayuden a que se levante el rock latino.
chido Barbara ojala te salga esta facil.  cuerdas.
Comments