Panda - Ilasha Chords & Tabs

 

Ilasha Chords & Tabs

Panda Chords & Tabs

Version: 1 Type: Tab 0 ratings
1 star 2 stars 3 stars 4 stars 5 stars
comments

Ilasha Tab

Esta cancion esta muy facil, cuestion de que la oigan y le agarren la 
onda, facil.


Intro

e|---------------------------------------|
B|---------------------------------------|
G|---------------------------------------|
D|----------3-6--------------------------| x6 (en la ultima no toque las notas
A|----3-6-4------------------------------|     en la cuerda D)
E|--4------------------------------------|


Estos son los acordes de la primera parte del verso, escuchen la cancion 
para que agarren el ritmo y el numero de veces que tocan el acorde

Verso 1
e|-----------------------|
B|-----------------------|
G|-----6-----------------|
D|--6--6--3--2-----------|
A|--6--4--3--2-----------|
E|--4-----1--0-----------|


Segunda parte del verso (Yo pense que eras normal...)
[ Tab from: http://www.guitartabs.cc/tabs/p/panda/ilasha_tab.html ]
Verso 2
e|---------------------------------------|
B|---------------------------------------|
G|---------6-6-6-------------------------|
D|--6-6-6--6-6-6---x2--------------------|
A|--6-6-6--4-4-4-------------------------|
E|--4-4-4--------------------------------|
Pm  ...    ...

luego


e|---------------------------------------|
B|---------------------------------------|
G|---------6-6-6-------------------------|
D|--6-6-6--6-6-6---3-3-3--2-2-2----------|
A|--6-6-6--4-4-4---3-3-3--2-2-2----------|
E|--4-4-4----------1-1-1--0-0-0----------|
Pm  ...    ...     ...    ... 


Coro

e|-----------------------|
B|-----------------------|
G|---------6--8----------|
D|---6--8--6--8----------| x2
A|---6--8--4--6----------|
E|---4--6----------------|


intro x4


Verso 1 X2

Verso 2 

Coro x2

Verso 1 X2

Coro X4


Listo, Facil. Esta rola esta padre mis condolencias a los que 
esten muy weyes pa entenderla o a las chavas que se llamen 
Socorro. Je je... disfruten
Saludos Cocoyoc Side y jaja asi pasÚ en Acapulco con Socorro!!!
Comments