Panda - Cuando No Es Como Debiera Ser Chords & Tabs

 

Cuando No Es Como Debiera Ser Chords & Tabs

Panda Chords & Tabs

Version: 1 Type: Bass Tab

Cuando No Es Como Debiera Ser Bass Tab

ARTISTA: Panda
TITULO:	Cuando No Es Como Debería Ser

k onda esta es mi primera tabletura si me equivoque arreglenle porfa. Esta
cancion se la dedico a una niña muy especial en la que siempre estoy pensando.

Intro
G|------------------------------------|
D|------------------------------------|
A|---------------------------22221111-|
E|-44444444-00000000-22222222---------| x2

Verso
G|-------------------------------------------|
D|-------------------------------------------|
A|----------------------2222222222-----------|
E|-4444444444-0000000000----------2222222222-| x4

Coro
G|------------------------------------|
D|------------------------------------|
A|---------------------------22221111-|
E|-44444444-00000000-22222222---------|

G|-----------------------------------|
D|-----------------------------------|
A|---------------------------22-2111-|
E|-44444444-00000000-22222222--------|

G|------------------------------------|
D|------------------------------------|
A|---------------------------22221111-|
E|-44444444-00000000-22222222---------| x2

Verso 2
G|-------------------------------------------|
D|-------------------------------------------|
A|----------------------2222222222-----------|
E|-4444444444-0000000000----------2222222222-| x3
[ Tab from: http://www.guitartabs.cc/tabs/p/panda/cuando_no_es_como_debiera_ser_btab.html ]
G|---------------------------------------------|
D|---------------------------------------------|
A|----------------------2222222222-------------|
E|-4444444444-0000000000----------2-2-2-22/9/4-|

Coro
G|------------------------------------|
D|------------------------------------|
A|---------------------------22221111-|
E|-44444444-00000000-22222222---------|

G|-----------------------------------|
D|-----------------------------------|
A|---------------------------22-2111-|
E|-44444444-00000000-22222222--------|

G|------------------------------------|
D|------------------------------------|
A|---------------------------22221111-|
E|-44444444-00000000-22222222---------| x2

"Ya No Queria Darte La Razon..."
G|---------------------------------
D|-2~22~22~1~11~11~2~22~22~4~44~44~
A|---------------------------------|
E|---------------------------------| x3

G|------------------------------------
D|-2~22~22~1~11~11~2~22~22~4~44~44~6~-
A|------------------------------------|
E|------------------------------------|

Coro
G|------------------------------------|
D|------------------------------------|
A|---------------------------22221111-|
E|-44444444-00000000-22222222---------| x2

Outro
G|----------------------------------|
D|----------------------------------|
A|-------------------------2~2~1~1~-|
E|-4~4~4~4~0~0~0~0~2~2~2~2~---------|

G|-----------------------------------|
D|-----------------------------------|
A|-------------------------222-11----|
E|-4~4~4~4~0~0~0~0~2~2~2~2~-------4~-|

Tabbed by Aland Escudero

Saludos a la banda de Pachuca y a la banda GenesisĦĦĦĦĦĦĦĦĦĦĦĦĦĦĦĦĦĦĦ
Panda rocks 4 everĦĦĦĦĦĦĦĦĦĦĦĦĦĦĦĦĦĦĦĦĦĦĦĦ