Panda - Cortame Con Unas Tijeras Chords & Tabs

 

Cortame Con Unas Tijeras Chords & Tabs

Panda Chords & Tabs

Version: 1 Type: Tab 0 ratings
1 star 2 stars 3 stars 4 stars 5 stars
comments

Cortame Con Unas Tijeras Tab

   
-------------------------------------------------------------------------------
			     Cortame con unas tijeras - Panda
-------------------------------------------------------------------------------

Album: La revancha del principe charro
Tabbed by: Antonio García
E-Mail: tonogc@hotmail.com

Note: I made a little mistake on my last attempt. I did this: 8h7, but it's not hammer
on, it's pull-off. I corrected it already.

Key

| /  slide up
| \  slide down
| h  hammer-on
| p  pull-off
| ~  vibrato
| +  harmonic
| x  Mute note

Intro

00:01 - 00:30
e|---------------------------------------------------------|
B|---------------------------------------------------------|
G|---------------7-7-7-7---------5-5-5-5-------------------|
D|-5~----5-5-5-5-7-7-7-7-5-5-5-5-5-5-5-5-5-5-5-5-----------|
A|-5~----5-5-5-5-5-5-5-5-5-5-5-5-3-3-3-3-5-5-5-5-----------|
E|-3~----3-3-3-3---------3-3-3-3---------3-3-3-3-----------|

e|---------------------------------------------------------|
B|---------------------------------------------------------|
G|-7-7-7-7------5-5-7-5-4-2--------------------------------|
D|-7-7-7-7--5-5-5-5-7-5-4-2--------------------------------|
A|-5-5-5-5--5-5-3-3-5-3-2-0--------------------------------|
E|----------3-3--------------------------------------------|

e|---------------------------------------------------------|
B|---------------------------------------------------------|
G|-0-7-9-7----7--0-7-9-7----7--x4-4--x5-5------------------|
D|---------10------------10----x4-4--x5-5------------------|
A|-----------------------------x2-2--x3-3------------------|
E|---------------------------------------------------------|

e|---------------------------------------------------------|
B|---------------------------------------------------------|
G|-0-7-9-7----7--0-7-9-7----7--x4-4--x5-5------------------|
D|---------10------------10----x4-4--x5-5-5~---------------|
A|-----------------------------x2-2--x3-3-5~---------------|
E|----------------------------------------3~---------------|
(I couldn't figure the second guitar, if anyone wants to help add me to your MSN.)


Verse

00:38 - 00:47
e|---------------------------------------------------------|
B|------7---8p7------7---8p7------7---8p7----10p7---8p7----|
G|----7---7------7-7---7------7-7---7------7------7--------|
D|---------------------------------------------------------|
A|---------------------------------------------------------|
E|---------------------------------------------------------|
      .   .      . .   .      . .   .      .      .         


PreChorus

00:48 - 00:59

Guitar 1
e|---------------------------------------------------------|
B|---------------------------------------------------------|
G|-----4~--5~--7~------------------------------------------|
D|-6~--4~--5~--7~------------------------------------------|
A|-6~--2~--3~--5~------------------------------------------|
E|-4~------------------------------------------------------|

e|---------------------------------------------------------|
B|---------------------------------------------------------|
G|-----4~--5~--7~------------------------------------------|
D|-6~--4~--5~--7~------------------------------------------|
A|-6~--2~--3~--5~------------------------------------------|
E|-4~------------------------------------------------------|


Chorus

01:00 - 01:18
e|---------------------------------------------------------|
B|---------------------------------------------------------|
G|-------------------55555555-77777777---------------------|
D|-55555555-22222222-55555555-77777777---------------------|
A|-55555555-22222222-33333333-55555555---------------------|
E|-33333333-00000000---------------------------------------|
[ Tab from: http://www.guitartabs.cc/tabs/p/panda/cortame_con_unas_tijeras_tab.html ]
e|---------------------------------------------------------|
B|---------------------------------------------------------|
G|-------------------55555555-77-7-77-7--------------------|
D|-55555555-22222222-55555555-77-7-77-7--------------------|
A|-55555555-22222222-33333333-55-5-55-5--------------------|
E|-33333333-00000000---------------------------------------|
                              ..   ..

e|---------------------------------------------------------|
B|---------------------------------------------------------|
G|-------------------55555555-77777777---------------------|
D|-55555555-22222222-55555555-77777777---------------------|
A|-55555555-22222222-33333333-55555555---------------------|
E|-33333333-00000000---------------------------------------|

e|---------------------------------------------------------|
B|---------------------------------------------------------|
G|-------------------55555555-77-7-77-7--------------------|
D|-55555555-22222222-55555555-77-7-77-7--------------------|
A|-55555555-22222222-33333333-55-5-55-5--------------------|
E|-33333333-00000000---------------------------------------|
                              ..   ..

Repeat this part
e|---------------------------------------------------------|
B|---------------------------------------------------------|
G|-0-7-9-7----7--0-7-9-7----7--x4-4--x5-5------------------|
D|---------10------------10----x4-4--x5-5------------------|
A|-----------------------------x2-2--x3-3------------------|
E|---------------------------------------------------------|

e|---------------------------------------------------------|
B|---------------------------------------------------------|
G|-0-7-9-7----7--0-7-9-7----7--x4-4--x5-5------------------|
D|---------10------------10----x4-4--x5-5-5~---------------|
A|-----------------------------x2-2--x3-3-5~---------------|
E|----------------------------------------3~---------------|

And then the verse
e|---------------------------------------------------------|
B|------7---8p7------7---8p7------7---8p7----10p7---8p7----|
G|----7---7------7-7---7------7-7---7------7------7--------|
D|---------------------------------------------------------|
A|---------------------------------------------------------|
E|---------------------------------------------------------|
      .   .      . .   .      . .   .      .      .         


Pero tu te fuiste...
e|---------------------------------------------------------|
B|---------------------------------------------------------|
G|---------7777777-4444444-5555555-------------------------|
D|-5555555-7777777-4444444-5555555-------------------------|
A|-5555555-5555555-2222222-3333333-------------------------|
E|-3333333-------------------------------------------------|


Pero tu te fuiste...
e|---------------------------------------------------------|
B|---------------------------------------------------------|
G|----7-74-4-5---------------------------------------------|
D|-5-57-74-4-5---------------------------------------------|
A|-5-55-52-2-3---------------------------------------------|
E|-3-3-----------------------------------------------------|

El te cambio también...
e|---------------------------------------------------------|
B|---------------------------------------------------------|
G|----------44444444-55555555-77777777---------------------|
D|-66666666-44444444-55555555-77777777---------------------|
A|-66666666-22222222-33333333-55555555---------------------|
E|-44444444------------------------------------------------|x2

Play Chorus

And then this:
e|---------------------------------------------------------|
B|---------------------------------------------------------|
G|-77-777-777-7777-----------------------------------------|
D|-77-777-777-7777-----------------------------------------|
A|-55-555-555-5555-----------------------------------------|
E|---------------------------------------------------------|x4
   .. ... ... ...

e|---------------------------------------------------------|
B|---------------------------------------------------------|
G|------7~--7-----5~--5-----7~--7--5-7-5-4-2---------------|
D|-5~--57~--75~--55~--55~--57~--75-5-7-5-4-2---------------|
A|-5~--55~--55~--53~--35~--55~--55-3-5-3-2-0---------------|
E|-3~--3-----3~--3-----3~--3-----3-------------------------|

Play Chorus again

END


Saludos a los weyes que conosco -.-

Any comments e-mail me or add me to your MSN.
Comments