Panda - Buen Dia Chords & Tabs

 

Buen Dia Chords & Tabs

Panda Chords & Tabs

Version: 1 Type: Chords 0 ratings
1 star 2 stars 3 stars 4 stars 5 stars
comments

Buen Dia Chords

   
Principio:Hoooohhh....

C# F# C# G# F#

-----------------------
-----------------------
-6------6--------------
-6--4---6---6---4------
-4--4---4---6---4------
----2-------4---2------

Verso:Te Conozco.....

C# A# G# F#

---------------------
---------------------
--6---3--------------
--6---3---6----4-----
--4---1---6----4-----
----------4----2-----

Coro:Quiero Verte....
[ Tab from: http://www.guitartabs.cc/tabs/p/panda/buen_dia_crd.html ]
C# F# G#

------------------
------------------
--6---------------
--6--4---6--------
--4--4---6--------
-----2---4--------

No Me Se La Escala

Me Dejaste....

C# A#

------------------
------------------
--6----3----------
--6----3----------
--4----1----------
------------------

Ritmo De La Cancion Es Bastante Obvio. 
Esta Rola Esta Con Madre Y Se La Dedico
A Una Chava Ke Conoci En Una Fiesta.
Saludos A Todos. Dudas??? jchuy_juarez@hotmail.com
Comments