Panda - Ando Pedo Y Ella Esta Aqui Chords & Tabs

 

Ando Pedo Y Ella Esta Aqui Chords & Tabs

Panda Chords & Tabs

Version: 1 Type: Bass Tab 0 ratings
1 star 2 stars 3 stars 4 stars 5 stars
comments

Ando Pedo Y Ella Esta Aqui Bass Tab

   
PANDA
ANDO PEDO Y ELLA ESTA AQUI

G|--------------------------------------------->
D|----6---6-6----8---8-8----9---9-9----8---8-8->
A|--------------------------------------------->
E|-444-444-4--666-666-6--777-777-7--666-666-6-->
CONT...
<---------------------------------------------------|
<----6---6-6----8---8-8----9---9-9-1212121212121212-|
<---------------------------------------------------|
<-444-444-4--666-666-6--777-777-7-------------------|
                                       X2
G|---------------------------------------|
D|---------------------------------------|
A|---------44444444-222222222-6666-4444--|
E|-22222222------------------------------|
 
G|----8----------|
D|---------------|
A|-666---2-1-----|
E|-----------6-4-|
                                       X4
G|---------------------------------------|
D|---------------------------------------|
A|---------44444444-222222222-6666-4444--|
E|-22222222------------------------------|

G|-------------------|
D|-------------------|
A|-22222222-44444444-|
E|-------------------|

G|---------------------------------------|
D|---------------------------------------|
A|-----1111-2222-4444-2222----------4444-|
E|-2222-------------------2222-4444------|

G|--------------------|
D|--------------------|
A|-----1111-2222-4444-|
E|-2222---------------|
[ Tab from: http://www.guitartabs.cc/tabs/p/panda/ando_pedo_y_ella_esta_aqui_btab.html ]
G|----8---8--8---8---------|
D|-------------------------|
A|-666-666-666-66--2-1-----|
E|---------------------6-4-|
                                       X2
G|---------------------------------------|
D|---------------------------------------|
A|---------44444444-222222222-6666-4444--|
E|-22222222------------------------------|
             
G|------------|
D|------------|
A|-2~-2-1-----|
E|--------4-6-|
                                       X4
G|---------------------------------------|
D|---------------------------------------|
A|---------44444444-222222222-6666-4444--|
E|-22222222------------------------------|

G|-------------------|
D|-------------------|
A|-22222222-44444444-|
E|-------------------|

G|---------------------------------------|
D|---------------------------------------|
A|-----1111-2222-4444-2222----------4444-|
E|-2222-------------------2222-4444------|

G|--------------------|
D|--------------------|
A|-----1111-2222-4444-|
E|-2222---------------|

G|----8---8--8---8-----------|
D|---------------------------|
A|-666-666-666-66--2-1-------|
E|---------------------6-4~~-|
                              X6
G|------------------------------|
D|------------------------------|
A|---------4-2-1-------444-2-1--|
E|-2222222-------44444----------|

G|------------------|
D|------------------|
A|------------------|
E|-2222222222222222-|
                                       X3
G|---------------------------------------|
D|---------------------------------------|
A|-----1111-2222-4444-2222----------4444-|
E|-2222-------------------2222-4444------|

G|--------------------|
D|--------------------|
A|-----1111-2222-4444-|
E|-2222---------------|

G|----8---8--8---8----------|
D|--------------------------|
A|-666-666-666-66--2-1------|
E|---------------------6-4~-|
Comments