Panda - 31 Chords & Tabs

 

31 Chords & Tabs

Panda Chords & Tabs

Version: 3 Type: Tab 0 ratings
1 star 2 stars 3 stars 4 stars 5 stars
comments

31 Tab

   
----------------------------------------------------------------------------
			     3+1 - Panda
----------------------------------------------------------------------------
Tabbed by: zElEka
Email: carolinazatarain_3@hotmail.com

Aqui esta la cancion completa espero y le agarren la onda... el rasgeo ya es cosa de
ustedes trae mucho tapado y rasgeos rapidos y lentos, pongale enjundia ! =P
Suerte !

Tuning: Eb

Intro
Guitar 1
eb|--------------------------------------------------------------------------|
Bb|--------------------------------------------------------------------------|
Gb|------------------5+------------------------------------------------------|
Db|-12+---7+---5+---------9+------5+-----------------------------------------|
Ab|--------------------------------------------------------------------------|
Eb|--------------------------------------------------------------------------|

Guitar 2
eb|--------------------------------------------------------------------------|
Bb|--------------------------------------------------------------------------|
Gb|---7---------7------------------------------------------------------------|
Db|---7--x2-----7----9---7---------------------------------------------------|
Ab|---5---------5----9---7---------------------------------------------------|
Eb|------------------7---5---------------------------------------------------|

Intro 2
Guitar 1
eb|-------------------------------------------------------------------------|
Bb|--------5-------5-7--7^-7-5-----------5-----------5-7-7^-7---------------|
Gb|-5/7~-----7---7--------------7-7-4-7-----7-----7-------------------------|
Db|-------------------------------------------------------------------------|
Ab|-------------------------------------------------------------------------|
Eb|-------------------------------------------------------------------------|

eb|-------7-5-----------10--9--10-----12-10-9-------------------------------|
Bb|-5----------8-7^-7-5-----------------------12-10-9-----------------------|
Gb|---7-----------------------------------------------12-11-9---------------|
Db|-----------------------------------------------------------9-7-----------|
Ab|-------------------------------------------------------------------------|
Eb|-------------------------------------------------------------------------|

Guitar 2
eb|-------------------------------------------------------------------------|
Bb|-------------------------------------------------------------------------|
Gb|--7----4-----------------------------------------------------------------|
Db|--7----4----5----9--7----------------------------------------------------|
Ab|--5----2----5----9--7----------------------------------------------------|
Eb|------------3----7--5----------------------------------------------------|

Verse
eb|-------------------------------------------------------------------------|
Bb|-------------------------------------------------------------------------|
Gb|----7--------------------------------------------------------------------|
Db|----7--9--7--5-----------------------------------------------------------|
Ab|----5--9--7--5---x2------------------------------------------------------|
Eb|-------7--5--3-----------------------------------------------------------|
[ Tab from: http://www.guitartabs.cc/tabs/p/panda/31_tab_ver_3.html ]
Pre-Chorus
eb|--------------------------------------------------------------------------|
Bb|--------------------------------------------------------------------------|
Gb|--------------------------------------------------------------------------|
Db|-----9--7--5--5-----------------------------------------------------------|
Ab|-----9--7--5--5--x2-------------------------------------------------------|
Eb|-----7--5--3--3-----------------------------------------------------------|

Chorus
eb|-------------------------------------------------------------------------|
Bb|-------------------------------------------------------------------------|
Gb|----7----4---------------7----4------------------------------------------|
Db|----7----4----5----9--7--7----4----5----9--7--5--5-----------------------|
Ab|----5----2----5----9--7--5----2----5----9--7--5--5-----------------------|
Eb|--------------3----7--5------------3----7--5--3--3-----------------------|

eb|-------------------------------------------------------------------------|
Bb|-------------------------------------------------------------------------|
Gb|----7----4---------------------------------------------------------------|
Db|----7----4----5----9--7--------------------------------------------------|
Ab|----5----2----5----9--7--------------------------------------------------|
Eb|--------------3----7--5--------------------------------------------------|

Verse
Pre-Chorus
Chorus

Pre-End
Guitar 1
eb|-------------------------------------------------------------------------|
Bb|--------5-------5-7--7^-7-5-----------5-----------5-7-7^-7---------------|
Gb|-5/7~-----7---7--------------7-7-4-7-----7-----7-------------------------|
Db|-------------------------------------------------------------------------|
Ab|-------------------------------------------------------------------------|
Eb|-------------------------------------------------------------------------|

eb|-------7-5-----------10--9-----------------------------------------------|
Bb|-5----------8-7^-7-5---------12-10^-10----10-8-7-5-----5-----------------|
Gb|---7------------------------------------------------7~----7--------------|
Db|-------------------------------------------------------------------------|
Ab|-------------------------------------------------------------------------|
Eb|-------------------------------------------------------------------------|

eb|-------------------------------------------------------------------------|
Bb|-------5-7^-7-5-----------5------------5-7-7^-7-5------------------------|
Gb|---7-------------7-7-4-7-----7------7--------------7--7~-----------------|
Db|-------------------------------------------------------------------------|
Ab|-------------------------------------------------------------------------|
Eb|-------------------------------------------------------------------------|

Guitar 2
eb|-------------------------------------------------------------------------|
Bb|-------------------------------------------------------------------------|
Gb|--7----4---------------7----4--------------------------------------------|
Db|--7----4----5----9--7--7----4----5---------------------------------------|
Ab|--5----2----5----9--7--5----2----5---------------------------------------|
Eb|------------3----7--5------------3---------------------------------------|

End
eb|-------------------------------------------------------------------------|
Bb|-------------------------------------------------------------------------|
Gb|--7----4---------------7----4-------------7------------------------------|
Db|--7----4----5----9--7--7----4----5--9--7--7------------------------------|
Ab|--5----2----5----9--7--5----2----5--9--7--5------------------------------|
Eb|------------3----7--5------------3--7--5---------------------------------|


| /  slide up
| \  slide down
| h  hammer-on
| p  pull-off
| ~  vibrato
| +  harmonic
| x  Mute note
============================================================================
Comments