Paloalto - Fade Out-in Chords & Tabs

 

Fade Out-in Chords & Tabs

Paloalto Chords & Tabs

Version: 1 Type: Bass Tab 0 ratings
1 star 2 stars 3 stars 4 stars 5 stars
comments

Fade Out-in Bass Tab

   
-------------------------------------------------------------------------------
			     Fade Out/In by Palo Alto	
-------------------------------------------------------------------------------

Tabbed By : Brooks Harrell	
e-mail: cbh0905@mail.ecu.edu	

Tuning:Standard
Intro (0:08)
G|-------------------------------------------|
D|-------------------------------------------|
A|-----------3-3-3-3-3-----------0-0-0-0-0---| 2x
E|-0-0-0-0-0-----------3-3-3-3-3-------------|
Verse (0:23, 1:31)
G|------------------------------------|
D|------------------------------------|
A|--7-7-7-7-7-7-7-7\3-3-3-3-3-3-3-3---|  4x normal, then 4x w/ distortion
E|------------------------------------|
Pre-Chorus (0:53, 1:46)
G|-------------------------------------------------|
D|-------------------------------------------------|
A|-----------------------------7--7-7-----7---7-7--|
E|-3-3-3-3-3-3-2-2-2-2-2-2-0-0--0-----0-0---0------|
[ Tab from: http://www.guitartabs.cc/tabs/p/paloalto/fade_out_in_btab.html ]
G|--------------------------------------------------|
D|--------------------------------------------------|
A|-------------------------3-3-3-3-3-3-5-5-5-5-5-5--|
E|-3-3-3-3-3-3-2-2-2-2-2-2--------------------------|
1st Chorus (1:08)
G|--------------------------------------------|
D|--------------------------------------------|
A|-----------3-3-3-3-3-----------0-0-0-0-0----|  3x
E|-0-0-0-0-0-----------3-3-3-3-3--------------|
Then back to the verse 4x
Then back to the pre-chorus
Then the 2nd chorus (2:00)
G|------------------------------------------|
D|------------------------------------------|
A|-----------3-3-3-3-3-----------0-0-0-0-0--|  1x, then on the 2nd
E|-0-0-0-0-0-----------3-3-3-3-3------------|

G|----------------------------------------------------------------|
D|----------------------------------------------------------------|
A|-----------3-3-3-3-3-----------0-0-0-0-0-3-3-3-3-3-3-3-3-3-3-3--|
E|-0-0-0-0-0-----------3-3-3-3-3----------------------------------|

Then during the solo (2:20), play the 1st chorus 2x, then rest
(2:42)
G|-----------------------------|
D|-----------------------------|
A|--16\7-7-7-7-7-7\3-3-3-3-3-3-|
E|-----------------------------|
Then play the 1st chorus until 3:20, and then play this until the end
G|-------------------|
D|-------------------|
A|-------------------|
E|-12-12-12-12-12-12-|


I didn't tab out exactly how many times you play each note, but I think you can figure
it out.  I'm pretty sure this is correct, but it is the first time I've ever tabbed
anything, so let me know if I messed anything up.
| /  slide up
| \  slide down
| h  hammer-on
| p  pull-off
| ~  vibrato
| +  harmonic
| x  Mute note
===============================================================================
Comments