Paisley Brad - Wrapped Around Chords & Tabs

 

Wrapped Around Chords & Tabs

Paisley Brad Chords & Tabs

Version: 1 Type: Tab 1 rating
1 star 2 stars 3 stars 4 stars 5 stars
comments

Wrapped Around Tab

   
ok first let me say that I DID NOT WRITE THIS...I am not going to take credit 
for this but i do think that credit should be taken where credit is due. so 
here is the song "Wrapped Around" by Brad Paisley...i like it, but again this
was already here but I just wanted to give it an artist so here is the song...



Intro:
								 A ---4h2p0----
E -4\5-5-5--4\5-5-5--4h2p0-0-0   repeat 4times, last time end on E 0h2---------


 A	    D	     E		   A				D
Everyday I clock out, head straight to her house. We cuttle up, on the couch.
 E
But it always ends the same old way, I´m driving home and it´s incredibly late

Something´s gotta change!

Chorus:
		D				    A
Cause I´ve been wrapped around her finger since the first time we went out.
 E			    D		A
Everyday, every night she´s all I think about
 D			    A			D
I need that girl beside me, when the lights go out.
			    A		E		  A
I think it´s time to put a ring on her finger I´m wrapped around.

 A		 D		  E	     A
Went to the bank, took out a loan then bought the perfect stone.
		  D		E
Called up her dad on the phone...I´m taking him to dinner sunday night,

I´ve never been so nervous in my life, I wanna do this right.
[ Tab from: http://www.guitartabs.cc/tabs/p/paisley_brad/wrapped_around_tab.html ]
Chorus:
		D				    A
Cause I´ve been wrapped around her finger since the first time we went out.
 E			    D		A
Everyday, every night she´s all I think about
 D			    A			D
I need that girl beside me, when the lights go out.
			    A		E		  A
I think it´s time to put a ring on her finger I´m wrapped around.

Solo:

---------------------------------------------------------------------
---------------------------------5----5------------------------------
-2----2-1---------1-------------6-6--6----------------7--6-----------
----------4-4-------2-0-2------7----7--7---------4--7------7--4------
----4-----------4---------4----------------7-7--------------------7--
---------------------------------------------------------------------



-5-------------------------------------------------------------------
---9-5---------------------------------------------------------------
-------7-6-----------------------------------------------------------
-----------7-6-----------then up and down in a pretty likwise pattern
---------------7-5-------------------only very, very fast------------
---------------------------------------------------------------------

 E
Yes sir, I love her very much. I know it´s only been seven months,

but that´s how long to know.
				-------------2-
Chorus:				------------4--
		   muted E/A/D:	-0-0-2-2-5-5---	 
					D	    A	
Cause I´ve been wrapped around her finger since the first time we went out.
 E			    D		A
Everyday, every night she´s all I think about
 D			    A			D
I need that girl beside me, when the lights go out.
			    A		E		  A
I think it´s time to put a ring on her finger I´m wrapped around,
			    A		E		  A(fifth fret)
I think it´s time to put a ring on her finger I´m wrapped around

End with intro and fade out...

By Joakim Schöning

Comments and full solo please e-mail me at:hifimannen@yahoo.se










Comments