Pain Of Salvation - Undertow Chords & Tabs

 

Undertow Chords & Tabs

Pain Of Salvation Chords & Tabs

Version: 1 Type: Tab 0 ratings
1 star 2 stars 3 stars 4 stars 5 stars
comments

Undertow Tab

   
Undertow
Pain of Salvation
Remedy Lane (2002)

Tabbed by: The Perfect Element

Tunning D A D G B E

Intro, it's repeated a total of 5 times, 3 of them while singing
goes on (just follow the song).

|-------------------------------------------------------------------|
|-------------------------------------------------------------------|
|-----------------------------------------------2---32------32---32-|
|2-0(2)------(2)------2-02-2h3p0(2)------2-2-(0)-(0)--(0)-----(0)---|
|---------(0)---(0)-------------------(0)----------------(0)--------|
|------(0)---------(0)-------------(0)------------------------------|
[ Tab from: http://www.guitartabs.cc/tabs/p/pain_of_salvation/undertow_tab.html ]
|-------------------------------------------------------------------|
|-----------1----------------1--------------------------------------|
|02----------3-2-03------(3)--3-2------------2---32-----------------|
|--(0)--------0-------(0)------0--3------(3)--(0)--0(3)------(3)----|
|-----(0)----------(1)----------------(1)-----------------(0)---(0)-|
|--------(0)-----------------------(1)-----------------(0)---------0|

|----------------------|
|----------------------|
|----------------------|
|3-5(3)------(3)-------|
|---------(1)---(1)----|
|------(1)---------(1)-|

This is the one that goes under the harmonized voice part.
Play this only once.
|-------------------------------------------------------------------|
|-------------------------------------------------------------------|
|-------------------------------------------------------------------|
|7-6-7-6-7-6-7-5-3/5-5-5/7-7-7---6-7-5-3/5-5-5/7-7------------------|
|7-6-7-6-7-6-7-5-3/5-5-5/7-7-7---6-7-5-3/5-5-5/7-7------------------|
|7-6-7-6-7-6-7-5-3/5-5-5/7-7-7---6-7-5-3/5-5-5/7-7------------------|

Play this twice. For this riff strum out the notes, the
chord progression is the same as the first riff.

|--------------------------------|
|--------------------------------|
|--------------------------------|
|0---0---5---7---8---1---0---1---|
|0---0---5---7---8---1---0---1---|
|0---0---5---7---8---1---0---1---|

Play riff one, one more time, great simple song!
Comments