Pain In The Ass - Baby Chords & Tabs

 

Baby Chords & Tabs

Pain In The Ass Chords & Tabs

Version: 1 Type: Tab 0 ratings
1 star 2 stars 3 stars 4 stars 5 stars
comments

Baby Tab

pain in the ass,baby.
Tabbed by masterreen98@aol.com.
  
visit:                www.surgeweb.de
pain in the ass
baby                          

tune your guitar down 1/2 step
[ Tab from: http://www.guitartabs.cc/tabs/p/pain_in_the_ass/baby_tab.html ]
Vers:
----------
                
        Eb|-----------------------------------------------------------------------|
        Hb|-----------------------------------------------------------------------|
        Gb|-----------------------------------------------------------------------|
        Db|-----------------------------------------------------------------------|
        Ab|--9-9-9-7-7-7-5-5-5----------------------------------------------------|
        Eb|--7-7-7-5-5-5-3-3-3--2-3-2-3-------------------------------------------|
        
        
bridge(nicht so sicher):
------
           
        Eb|--------------------------------------------------------------------|
        Hb|--------------------------------------------------------------------|
        Gb|-------7-7-7-7------------------------------------------------------|
        Db|--2----7-7-7-7----2----5-5-5-5--------------------------------------|
        Ab|--2----5-5-5-5----2----5-5-5-5--------------------------------------|
        Eb|--0----0-0-0-0----0----3-3-3-3--------------------------------------|
        

refrain:
----------
     
        Eb|--------------------------------------------------------------------|
        Hb|--------------------------------------------------------------------|
        Gb|--------------------------------------------------------------------|
        Db|--9-9-9-11-11-11-12-12-12-7-7-7-------------------------------------|
        Ab|--7-7-7-9--9--9--10-10-10-5-5-5-------------------------------------|
        Eb|--------------------------------------------------------------------|
        
 
:: Ultimate Guitar Archive :: 
http://www.ultimate-guitar.com 

Comments