Paige Jennifer - Crush Chords & Tabs

 

Crush Chords & Tabs

Paige Jennifer Chords & Tabs

Version: 1 Type: Bass Tab 1 rating
1 star 2 stars 3 stars 4 stars 5 stars
comments

Crush Bass Tab

Song:      Crush
Artist:    Jennifer Paige
Tabbed by: Jason Mangan
Date:      9-12-2000

Bass should be in standard tuning, low to high E, A, D, G.

Intro:
|----------------|----------------|----------------|----------------|
|----------------|----------------|----------------|----------------|
|4-----4-4-4-----|4-----4-4-4-----|4-----4-4-4-----|4-----4-4-4-----|
|--------------4-|--------------4-|--------------4-|--------------4-|(x2)
1 * 2 * 3 * 4 *  1 * 2 * 3 * 4 *  1 * 2 * 3 * 4 *  1 * 2 * 3 * 4 *

1st Verse:
|----------------|----------------|----------------|----------------|
|----------------|----------------|----------------|----------------|
|4-----4-4-4-----|4-----4-4-4-----|4-----4-4-4-----|4-----4-4-4-----|
|--------------4-|--------------4-|--------------4-|--------------4-|(x4)
1 * 2 * 3 * 4 *  1 * 2 * 3 * 4 *  1 * 2 * 3 * 4 *  1 * 2 * 3 * 4 *

Chorus:
|----------------|----------------|----------------|----------------|
|----------------|----2-4---2-----|----------2---4-|----------------|
|4-----2-4-2-----|--4---------4-2-|0-----0/4-------|------2-------2-|
|------------4-0-|2---------------|----------------|----------2-4---|(x2)
1 * 2 * 3 * 4 *  1 * 2 * 3 * 4 *  1 * 2 * 3 * 4 *  1 * 2 * 3 * 4 *
[ Tab from: http://www.guitartabs.cc/tabs/p/paige_jennifer/crush_btab.html ]
|----------------|----------------|----------------|----------------|
|----------------|----------------|----------------|----------------|
|4-4---4---4-----|4-4---4---4-----|4-4---4---4-----|4-4---4---4-----|
|----------------|----------------|----------------|----------------|
1 * 2 * 3 * 4 *  1 * 2 * 3 * 4 *  1 * 2 * 3 * 4 *  1 * 2 * 3 * 4 *

2nd Verse:
|----------------|----------------|----------------|----------------|
|----------------|----------------|----------------|----------------|
|4/x-------------|----------------|4-----4-4-4-----|4-----4-4-4-----|
|----------------|----------------|--------------4-|--------------4-|
1 * 2 * 3 * 4 *  1 * 2 * 3 * 4 *  1 * 2 * 3 * 4 *  1 * 2 * 3 * 4 *

|----------------|----------------|----------------|----------------|
|----------------|----------------|----------------|----------------|
|4-----4-4-4-----|4-----4-4-4-----|4-----4-4-4-----|4-----4-4-4-----|
|--------------4-|--------------4-|--------------4-|--------------4-|(x3)
1 * 2 * 3 * 4 *  1 * 2 * 3 * 4 *  1 * 2 * 3 * 4 *  1 * 2 * 3 * 4 *

Chorus

3rd Verse:
|----------------|----------------|----------------|----------------|
|----------------|----------------|----------------|----------------|
|4---------------|--------------4-|4---------------|----------------|
|----------------|----------------|----------------|----------------|(x2)
1 * 2 * 3 * 4 *  1 * 2 * 3 * 4 *  1 * 2 * 3 * 4 *  1 * 2 * 3 * 4 *

Chorus (repeat 'til fade)

The End.

Comments