Paige - Here Without You Chords & Tabs

 

Here Without You Chords & Tabs

Paige Chords & Tabs

Version: 1 Type: Tab 0 ratings
1 star 2 stars 3 stars 4 stars 5 stars
comments

Here Without You Tab

Artist name = Paige
Song = Here Without You
Album = Home demo 
Year = 2006
Website = www.myspace.com/paigeuk

Intro x2
e|-3-3-3-3-3--|-3-3-3-3-3--|-3-3-3-3-3--|-2-3-3-3-3--|
b|-3-3-3-3-3--|-3-3-3-3-3--|-3-3-3-3-3--|-3-3-3-3-3--|
g|------------|------------|------------|-2-2-2-2-2--|
d|-2-2-2-2-2--|-2-2-2-2-2--|------------|------------|
a|-2-2-2-2-2--|-3-3-3-3-3--|-2-2-2-2-2--|------------|
e|------------|------------|-3-3-3-3-3--|------------|

Verse 1 x2 - Tonights the night...
e|-3----------|-3----------|-3----------|-2-3-2------|
b|-3----------|-3----------|-3----------|-3-3-3------|
g|------------|------------|------------|-2-2-2------|
d|-2----------|-2----------|------------|------------|
a|-2----------|-3----------|-2----------|------------|
e|------------|------------|-3----------|------------|

Verse 1 x1 - Still not sleeping...
e|-3-3-3-3-3-3-3-3-|-3-3-3-3-3-3-3-3-|-3-3-3-3-3-3-3-3-|-2-3-3-3-2-3-3-3-|
b|-3-3-3-3-3-3-3-3-|-3-3-3-3-3-3-3-3-|-3-3-3-3-3-3-3-3-|-3-3-3-3-3-3-3-3-|
g|-----------------|-----------------|-----------------|-2-2-2-2-2-2-2-2-|
d|-2-2-2-2-2-2-2-2-|-2-2-2-2-2-2-2-2-|-----------------|-----------------|
a|-2-2-2-2-2-2-2-2-|-3-3-3-3-3-3-3-3-|-2-2-2-2-2-2-2-2-|-----------------|
e|-----------------|-----------------|-3-3-3-3-3-3-3-3-|-----------------|

Bridge x4 - And this is the only time...
e|-3-3-3-3-3--|-3-3-3-3-3--|-3-3-3-3-3--|-2-3-3-3-3--|
b|-3-3-3-3-3--|-3-3-3-3-3--|-3-3-3-3-3--|-3-3-3-3-3--|
g|------------|------------|------------|-2-2-2-2-2--|
d|-2-2-2-2-2--|-2-2-2-2-2--|------------|------------|
a|-3-3-3-3-3--|-3-3-3-3-3--|-2-2-2-2-2--|------------|
e|------------|------------|-3-3-3-3-3--|------------|

Chorus x4 - So take my heart...
e|-3-3-3-3-3--|-3-3-3-3-3--|-3-3-3-3-3--|-2-3-3-3-3--|
b|-3-3-3-3-3--|-3-3-3-3-3--|-3-3-3-3-3--|-3-3-3-3-3--|
g|------------|------------|------------|-2-2-2-2-2--|
d|-2-2-2-2-2--|-2-2-2-2-2--|------------|------------|
a|-2-2-2-2-2--|-3-3-3-3-3--|-2-2-2-2-2--|------------|
e|------------|------------|-3-3-3-3-3--|------------|

After First Chorus x2
e|-3-3-3-3-3--|-3-3-3-3-3--|-3-3-3-3-3--|-2-3-3-3-3--|
b|-3-3-3-3-3--|-3-3-3-3-3--|-3-3-3-3-3--|-3-3-3-3-3--|
g|------------|------------|------------|-2-2-2-2-2--|
d|-2-2-2-2-2--|-2-2-2-2-2--|------------|------------|
a|-2-2-2-2-2--|-3-3-3-3-3--|-2-2-2-2-2--|------------|
e|------------|------------|-3-3-3-3-3--|------------|
[ Tab from: http://www.guitartabs.cc/tabs/p/paige/here_without_you_tab.html ]
Verse 2 - Close your eyes and think...
e|--------3--------|-3-3-3-3-3-3-3-3-|-3-3-3-3-3-3-3-3-|-2-3-3-3-2-3-3-3-|
b|-----3----3------|-3-3-3-3-3-3-3-3-|-3-3-3-3-3-3-3-3-|-3-3-3-3-3-3-3-3-|
g|-----------------|-----------------|-----------------|-2-2-2-2-2-2-2-2-|
d|---2--------2---2|-2-2-2-2-2-2-2-2-|-----------------|-----------------|
a|-2------------2--|-3-3-3-3-3-3-3-3-|-2-2-2-2-2-2-2-2-|-----------------|
e|-----------------|-----------------|-3-3-3-3-3-3-3-3-|-----------------|

e|-3-3-3-3-3-3-3-3-|-3-3-3-3-3-3-3-3-|-3---------------|-2-3-3-3-2-3-3-3-|
b|-3-3-3-3-3-3-3-3-|-3-3-3-3-3-3-3-3-|-3---------------|-3-3-3-3-3-3-3-3-|
g|-----------------|-----------------|-------PAUSE-----|-2-2-2-2-2-2-2-2-|
d|-2-2-2-2-2-2-2-2-|-2-2-2-2-2-2-2-2-|-----------------|-----------------|
a|-2-2-2-2-2-2-2-2-|-3-3-3-3-3-3-3-3-|-2---------------|-----------------|
e|-----------------|-----------------|-3---------------|-----------------|

Bridge x4 - And this is the only time...
e|-3-3-3-3-3--|-3-3-3-3-3--|-3-3-3-3-3--|-2-3-3-3-3--|
b|-3-3-3-3-3--|-3-3-3-3-3--|-3-3-3-3-3--|-3-3-3-3-3--|
g|------------|------------|------------|-2-2-2-2-2--|
d|-2-2-2-2-2--|-2-2-2-2-2--|------------|------------|
a|-3-3-3-3-3--|-3-3-3-3-3--|-2-2-2-2-2--|------------|
e|------------|------------|-3-3-3-3-3--|------------|

Chorus x4 - So take my heart...
e|-3-3-3-3-3--|-3-3-3-3-3--|-3-3-3-3-3--|-2-3-3-3-3--|
b|-3-3-3-3-3--|-3-3-3-3-3--|-3-3-3-3-3--|-3-3-3-3-3--|
g|------------|------------|------------|-2-2-2-2-2--|
d|-2-2-2-2-2--|-2-2-2-2-2--|------------|------------|
a|-2-2-2-2-2--|-3-3-3-3-3--|-2-2-2-2-2--|------------|
e|------------|------------|-3-3-3-3-3--|------------|

Middle x8- You say that... 
e|---3----3----3--------|---3----3----3----------|
b|--0-0--0-0--0-0--0--0-|--0-0--0-0--0-0---0--0--|
g|----------------------|------------------------|
d|----------------------|------------------------|
a|----------------------|------------------------|
e|-3----3----3----3--3--|-0----0----0-----0--0---|

Ending x3
e|-3-3-3--|-3-3-3--|-3-3-3--|-2-3-3--|
b|-3-3-3--|-3-3-3--|-3-3-3--|-3-3-3--|
g|--------|--------|--------|-2-2-2--|
d|-2-2-2--|-2-2-2--|--------|--------|
a|-2-2-2--|-3-3-3--|-2-2-2--|--------|
e|--------|--------|-3-3-3--|--------|

Ending 
e|-3-3-3----|-3-3-3------|-2-3-3-2-3-3-|-2-3-3-2-3-3--|-3----------|
b|-3-3-3----|-3-3-3------|-3-3-3-3-3-3-|-3-3-3-3-3-3--|-3----------|
g|----------|------------|-2-2-2-2-2-2-|-2-2-2-2-2-2--|------------|
d|-2-2-2----|-2-2-2------|-------------|--------------|------------|
a|-2-2-2----|-3-3-3------|-------------|--------------|-2----------|
e|----------|------------|-------------|--------------|-3----------|


Comments