Padi - Sesuatu Yang Indah Chords & Tabs

 

Sesuatu Yang Indah Chords & Tabs

Padi Chords & Tabs

Version: 1 Type: Tab 0 ratings
1 star 2 stars 3 stars 4 stars 5 stars
comments

Sesuatu Yang Indah Tab

   
Song    : Sesuatu yang Indah
Album   : Sesuatu yang Tertunda

Note: This tab is the way I play the song, not personnel’s way.
-----------------------------------------------------------------------------------
/  = Slide up
\  = Slide down
h  = Hummer on
p  = Pull off
~  = Vibrate
PM = Palm mute
x  = Dead note
’  = Bend (full=2 frets, 1/2=1 fret)
‘  = Release
’‘ = Bend and release
<  = Fade in

Intro
Piyu plays to open the song:
                E                       C
E|------------|-----------------------------------------------|
B|------8~----|-7~----------------8~----7~--½-----------8~----|
G|------------|----------------------------4’‘~---------------|
D|-9h10----10-|----9-8-9~\---9h10----10------------9h10----10-|
A|------------|-----------------------------------------------|
E|------------|-----------------------------------------------|

   E                       C
E|--------------------------------------|
B|-7~----------------8~----7~-----------|
G|-----------------------------½--------|
D|----9-8-9~\---9h10----10----4’‘~-2-3~-|
A|--------------------------------------|
E|--------------------------------------|

Ari plays
   E (delay effect)   C (phase effect)   E (Delay Effect)
E|------------------|-------------------|-------------------|
B|------------------|-------------------|-------------------|
G|------------------|-5-----------------|-------------------|
D|------------------|-5-----------------|-------------------|
A|-PM==========-----|-3-----------------|-------------------|
E|-0-0-0-0-0-x------|-------------------|-0-x-0-0-0-x-------|

   C (phase effect)
E|---------------------------------------|
B|------------------- < - Harmonic=====--|
G|-5------------------9~~~~~~~~~~~~~~~~--|
D|-5-------------------------------------|
A|-3-------------------------------------|
E|---------------------------------------|

Kekasihku aku telah mengenalmu sekian lama
Sepatutnya aku bisa mencintaimu sepenuh hati
Kuharapkan engkau dan aku saling mengerti bukan menyakiti
Tak perlu lagi ada pertengkaran

Ari plays:
    Am  Em  Am  Em  Am  Em      Am  B (Distortion and delay effect)
E|----------------------------|---------------------------------------------|
B|----------------------------|---------------------------------------------|
G|-some acoustic in Am and Em-|-----4---------------------------------------|
D|----------------------------|-----4---------------------------------------|
A|----------------------------|-----2---(pick sliding on string 5&6 slowly)-|
E|----------------------------|---------------------------------------------|

 
Piyu plays:
    Am   Em   Am   Em   Am   Em   Am       Am  B
E|---------------------------------------|-------|
B|---------------------------------------|-------|
G|-some PM technique such as funk rhythm-|-----4-|
D|---------------------------------------|-----4-|
A|---------------------------------------|-----2-|
E|---------------------------------------|-------|

Refrain.
Kini aku temukan, telah aku dapatkan
Jauh sudah tersimpan sesuatu yang indah dari dirimu
Semoga aku bisa, mungkin pun aku mampu
Untuk dapat memberikan tulus hatiku

Ari plays (Delay effect):
   C#m                       G#m
E|-------------------------|-------------------------|
B|---5—x-4-x-5-x-4-x-5-5-x-|-------------------------|
G|---6-x-6-x-6-x-6-x-6-6-x-|-x-4-x-4-x-4-x-4-x-4-4-x-|
D|-x-6-x-6-x-6-x-6-x-6-6-x-|-x-6-x-6-x-6-x-6-x-6-6-x-|
A|-x-4-x-4-x-4-x-4-x-4-4-x-|-x-6-x-6-x-6-x-6-x-6-6-x-|
E|-------------------------|-x-4-x-4-x-4-x-4-x-4-4-x-|

   A                         E   B
E|-------------------------|---|---|
B|-------------------------|---|---|
G|-x-6-x-6-x-6-x-6-x-6-6-x-|---|-4-|
D|-x-7-x-7-x-7-x-7-x-7-7-x-|-2-|-4-|
A|-x-7-x-7-x-7-x-7-x-7-7-x-|-2-|-2-|
E|-x-5-x-5-x-5-x-5-x-5-5-x-|-0-|---|

   C#m                       G#m
E|-------------------------|-------------------------|
B|---5—x-4-x-5-x-4-x-5-5-x-|-------------------------|
G|---6-x-6-x-6-x-6-x-6-6-x-|-x-4-x-4-x-4-x-4-x-4-4-x-|
D|-x-6-x-6-x-6-x-6-x-6-6-x-|-x-6-x-6-x-6-x-6-x-6-6-x-|
A|-x-4-x-4-x-4-x-4-x-4-4-x-|-x-6-x-6-x-6-x-6-x-6-6-x-|
E|-------------------------|-x-4-x-4-x-4-x-4-x-4-4-x-|

   A                         B
E|-------------------------|---------------------------|
B|-------------------------|---------------------------|
G|-x-6-x-6-x-6-x-6-x-6-6-x-|-x-8-x-8-x-8-x-8-x-8-x-8-8-|
D|-x-7-x-7-x-7-x-7-x-7-7-x-|-x-9-x-9-x-9-x-9-x-9-x-9-9-|
A|-x-7-x-7-x-7-x-7-x-7-7-x-|-x-9-x-9-x-9-x-9-x-9-x-9-9-|
E|-x-5-x-5-x-5-x-5-x-5-5-x-|-x-7-x-7-x-7-x-7-x-7-x-7-7-|

Piyu plays:
   C#m G#m A   E B   C#m G#m A   B
E|---|---|---|-----|---|---|---|---|
B|-5-|---|---|---4-|-5-|---|---|---|
G|-6-|-4-|-6-|-8-4-|-6-|-4-|-6-|-8-|
D|-6-|-6-|-7-|-2-4-|-6-|-6-|-7-|-9-|
A|-4-|-6-|-7-|-2-2-|-4-|-6-|-7-|-9-|
E|---|-4-|-5-|-0---|---|-4-|-5-|-7-|

Intro.
Piyu plays to open the song:
                E                       C
E|------------|-----------------------------------------------|
B|------8~----|-7~----------------8~----7~--½-----------8~----|
G|------------|----------------------------4’‘~---------------|
D|-9h10----10-|----9-8-9~\---9h10----10------------9h10----10-|
A|------------|-----------------------------------------------|
E|------------|-----------------------------------------------|


   E                       C
E|--------------------------------------|
B|-7~----------------8~----7~-----------|
G|-----------------------------½--------|
D|----9-8-9~\---9h10----10----4’‘~-2-3~-|
A|--------------------------------------|
E|--------------------------------------|

Ari plays: (with some delay effect)
    E                       C   E     C
E|------------------------|---|-----|---|
B|------------------------|---|-----|---|
G|------------------------|---|---9-|-5-|
D|-/6\4~------------------|-5-|-2-9-|-5-|
A|-------/5\3~~---2-0-----|-3-|-2-7-|-3-|
E|--------------5-----3-0-|---|-0---|---|

Kekasihku betapa aku tak pernah dapat membuaimu
Dengan kata-kata cinta yang mungkin bisa menyejukkanmu
Sungguh aku masih ingin terus mencari dalam jiwamu
Rasa ini ingin kuakui

Ari plays:
                        Am
E|--------------------|------|
B|-random slide once--|-/17\-|
G|--------------------|------|
D|--------------------|------|
A|--------------------|------|
E|--------------------|------|

        Em  Am  Em  Am  Em      Am  B (Distortion and delay effect)
E|----------------------------|---------------------------------------------|
B|----------------------------|---------------------------------------------|
G|-some acoustic in Am and Em-|-----4---------------------------------------|
D|----------------------------|-----4---------------------------------------|
A|----------------------------|-----2---(pick sliding on string 5&6 slowly)-|
E|----------------------------|---------------------------------------------|

Piyu plays:
    Am   Em   Am   Em   Am   Em   Am       Am  B
E|---------------------------------------|-------|
B|---------------------------------------|-------|
G|-some PM technique such as funk rhythm-|-----4-|
D|---------------------------------------|-----4-|
A|---------------------------------------|-----2-|
E|---------------------------------------|-------|

Refrain.
Kini aku temukan, telah aku dapatkan
Jauh sudah tersimpan sesuatu yang indah dari dirimu
Semoga aku bisa, mungkin pun aku mampu
Untuk dapat memberikan tulus hatiku

Ari plays (Delay effect):
   C#m                       G#m
E|-------------------------|-------------------------|
B|---5—x-4-x-5-x-4-x-5-5-x-|-------------------------|
G|---6-x-6-x-6-x-6-x-6-6-x-|-x-4-x-4-x-4-x-4-x-4-4-x-|
D|-x-6-x-6-x-6-x-6-x-6-6-x-|-x-6-x-6-x-6-x-6-x-6-6-x-|
A|-x-4-x-4-x-4-x-4-x-4-4-x-|-x-6-x-6-x-6-x-6-x-6-6-x-|
E|-------------------------|-x-4-x-4-x-4-x-4-x-4-4-x-|






   A                         E   B
E|-------------------------|---|---|
B|-------------------------|---|---|
G|-x-6-x-6-x-6-x-6-x-6-6-x-|---|-4-|
D|-x-7-x-7-x-7-x-7-x-7-7-x-|-2-|-4-|
A|-x-7-x-7-x-7-x-7-x-7-7-x-|-2-|-2-|
E|-x-5-x-5-x-5-x-5-x-5-5-x-|-0-|---|

   C#m                       G#m
E|-------------------------|-------------------------|
B|---5—x-4-x-5-x-4-x-5-5-x-|-------------------------|
G|---6-x-6-x-6-x-6-x-6-6-x-|-x-4-x-4-x-4-x-4-x-4-4-x-|
D|-x-6-x-6-x-6-x-6-x-6-6-x-|-x-6-x-6-x-6-x-6-x-6-6-x-|
A|-x-4-x-4-x-4-x-4-x-4-4-x-|-x-6-x-6-x-6-x-6-x-6-6-x-|
E|-------------------------|-x-4-x-4-x-4-x-4-x-4-4-x-|
[ Tab from: http://www.guitartabs.cc/tabs/p/padi/sesuatu_yang_indah_tab.html ]
   A                         B
E|-------------------------|---------------------------|
B|-------------------------|---------------------------|
G|-x-6-x-6-x-6-x-6-x-6-6-x-|-x-8-x-8-x-8-x-8-x-8-x-8-8-|
D|-x-7-x-7-x-7-x-7-x-7-7-x-|-x-9-x-9-x-9-x-9-x-9-x-9-9-|
A|-x-7-x-7-x-7-x-7-x-7-7-x-|-x-9-x-9-x-9-x-9-x-9-x-9-9-|
E|-x-5-x-5-x-5-x-5-x-5-5-x-|-x-7-x-7-x-7-x-7-x-7-x-7-7-|

Piyu plays:
   C#m G#m A   E B   C#m G#m A   B
E|---|---|---|-----|---|---|---|---|
B|-5-|---|---|---4-|-5-|---|---|---|
G|-6-|-4-|-6-|-8-4-|-6-|-4-|-6-|-8-|
D|-6-|-6-|-7-|-2-4-|-6-|-6-|-7-|-9-|
A|-4-|-6-|-7-|-2-2-|-4-|-6-|-7-|-9-|
E|---|-4-|-5-|-0---|---|-4-|-5-|-7-|

Intro.
Piyu plays:
                E                      C
E|------------|-----------------------------------------------|
B|------8~----|-7~---------------8~----7~-12’‘~---------8~----|
G|------------|-----------------------------------------------|
D|-9h10----10-|----9-8-9~---9h10----10-------------9h10----10-|
A|------------|-----------------------------------------------|
E|------------|-----------------------------------------------|

   E                      C                      E
E|---------------------------------------------|----|
B|-7~---------------8~----10~-12’‘~---7’‘~-----|----|
G|----PM=----------------------------------9-8-|-9~-|
D|----9-8-9~---9h10----10----------------------|----|
A|---------------------------------------------|----|
E|---------------------------------------------|----|

Ari plays:
   E
E|-----------------------------------------------------------------------------|
B|-----------------------------------------------------------------------------|
G|-PM=====-----PM====----PM----PM----PM=====-----PM----PM----PM----PM----------|
D|-2-2-2-2-2-x-2-2-2-2-x-2-2-x-2-2-x-2-2-2-2-2-x-2-2-x-2-2-x-2-2-x-2-2-x-2-2-2-|
A|-2-2-2-2-2-x-2-2-2-2-x-2-2-x-2-2-x-2-2-2-2-2-x-2-2-x-2-2-x-2-2-x-2-2-x-2-2-2-|
E|-0-0-0-0-0-x-0-0-0-0-x-0-0-x—0-0-x-0-0-0-0-0-x-0-0-x-0-0-x-0-0-x-0-0-x-0-0-0-|

   C
E|-----------------------------------------------------------------------------|
B|-PM=====-----PM===-----PM----PM----PM----PM=====-----PM----PM----PM----------|
G|-5-5-5-5-5-x-5-5-5-5-x-5-5-x-5-5-x-5-5-x-5-5-5-5-5-x-5-5-x-5-5-x-5-5-x-5-5-5-|
D|-5-5-5-5-5-x-5-5-5-5-x-5-5-x-5-5-x-5-5-x-5-5-5-5-5-x-5-5-x-5-5-x-5-5-x-5-5-5-|
A|-3-3-3-3-3-x-3-3-3-3-x-3-3-x-3-3-x-3-3-x-3-3-3-3-3-x-3-3-x-3-3-x-3-3-x-3-3-3-|
E|-----------------------------------------------------------------------------|
Ari plays it 2x. 
   E
E|---|
B|---|
G|---|
D|-2-|
A|-2-|
E|-0-|

Kekasihku maafkan aku bila tak mampu bahagiakanmu
Memelukmu dengan rasa cinta

(I’m not really sure how Ari and piyu play their guitar in this part. But I play some
tremolo and feedback randomly, or I use my whammy bar while I use my stratocaster. You can
improve it as you wish to)

Piyu plays:
   Am  Em   Am                  B
E|----------------------------|-----------------------------|
B|----------- < harmonic------|-PM=======================---|
G|-randomly---12~~~~~~~~~~~~--|-4-4-4-4-4-4-4-4-4-4-4-4-4-x-|
D|----------------------------|-4-4-4-4-4-4-4-4-4-4-4-4-4-x-|
A|----------------------------|-2-2-2-2-2-2-2-2-2-2-2-2-2-x-|
E|----------------------------|-----------------------------|

Ari plays:

E|--------distortion fade in-|-pick it very quick======-|
B|----------- < -------------|-4-------/12--------|-/14-|
G|-randomly---2--------------|--------------------|-----|
D|------------2--------------|--------------------|-----|
A|------------0--------------|--------------------|-----|
E|---------------------------|--------------------|-----|

Interlude.
Uuuuuuuuuuuuuuuuuuuuuuuu

Ari plays (Delay effect):
   C#m                       G#m
E|-------------------------|-------------------------|
B|---5—x-4-x-5-x-4-x-5-5-x-|-------------------------|
G|---6-x-6-x-6-x-6-x-6-6-x-|-x-4-x-4-x-4-x-4-x-4-4-x-|
D|-x-6-x-6-x-6-x-6-x-6-6-x-|-x-6-x-6-x-6-x-6-x-6-6-x-|
A|-x-4-x-4-x-4-x-4-x-4-4-x-|-x-6-x-6-x-6-x-6-x-6-6-x-|
E|-------------------------|-x-4-x-4-x-4-x-4-x-4-4-x-|

   A                         E   B
E|-------------------------|---|---|
B|-------------------------|---|---|
G|-x-6-x-6-x-6-x-6-x-6-6-x-|---|-4-|
D|-x-7-x-7-x-7-x-7-x-7-7-x-|-2-|-4-|
A|-x-7-x-7-x-7-x-7-x-7-7-x-|-2-|-2-|
E|-x-5-x-5-x-5-x-5-x-5-5-x-|-0-|---|

   C#m                       G#m
E|-------------------------|-------------------------|
B|---5—x-4-x-5-x-4-x-5-5-x-|-------------------------|
G|---6-x-6-x-6-x-6-x-6-6-x-|-x-4-x-4-x-4-x-4-x-4-4-x-|
D|-x-6-x-6-x-6-x-6-x-6-6-x-|-x-6-x-6-x-6-x-6-x-6-6-x-|
A|-x-4-x-4-x-4-x-4-x-4-4-x-|-x-6-x-6-x-6-x-6-x-6-6-x-|
E|-------------------------|-x-4-x-4-x-4-x-4-x-4-4-x-|

   A                         B
E|-------------------------|---------------------------|
B|-------------------------|---------------------------|
G|-x-6-x-6-x-6-x-6-x-6-6-x-|-x-8-x-8-x-8-x-8-x-8-x-8-8-|
D|-x-7-x-7-x-7-x-7-x-7-7-x-|-x-9-x-9-x-9-x-9-x-9-x-9-9-|
A|-x-7-x-7-x-7-x-7-x-7-7-x-|-x-9-x-9-x-9-x-9-x-9-x-9-9-|
E|-x-5-x-5-x-5-x-5-x-5-5-x-|-x-7-x-7-x-7-x-7-x-7-x-7-7-|
Piyu plays:
   C#m G#m A   E B   C#m G#m A   B
E|---|---|---|-----|---|---|---|---|
B|-5-|---|---|---4-|-5-|---|---|---|
G|-6-|-4-|-6-|-8-4-|-6-|-4-|-6-|-8-|
D|-6-|-6-|-7-|-2-4-|-6-|-6-|-7-|-9-|
A|-4-|-6-|-7-|-2-2-|-4-|-6-|-7-|-9-|
E|---|-4-|-5-|-0---|---|-4-|-5-|-7-|

Refrain.

Kini aku temukan, telah aku dapatkan
Jauh sudah tersimpan sesuatu yang indah dari dirimu
Semoga aku bisa, mungkin pun aku mampu
Untuk dapat membahagiakan hatimu

Ari plays (Delay effect):
   C#m                       G#m
E|-------------------------|-------------------------|
B|---5—x-4-x-5-x-4-x-5-5-x-|-------------------------|
G|---6-x-6-x-6-x-6-x-6-6-x-|-x-4-x-4-x-4-x-4-x-4-4-x-|
D|-x-6-x-6-x-6-x-6-x-6-6-x-|-x-6-x-6-x-6-x-6-x-6-6-x-|
A|-x-4-x-4-x-4-x-4-x-4-4-x-|-x-6-x-6-x-6-x-6-x-6-6-x-|
E|-------------------------|-x-4-x-4-x-4-x-4-x-4-4-x-|

   A                         E   B
E|-------------------------|---|---|
B|-------------------------|---|---|
G|-x-6-x-6-x-6-x-6-x-6-6-x-|---|-4-|
D|-x-7-x-7-x-7-x-7-x-7-7-x-|-2-|-4-|
A|-x-7-x-7-x-7-x-7-x-7-7-x-|-2-|-2-|
E|-x-5-x-5-x-5-x-5-x-5-5-x-|-0-|---|

   C#m                       G#m
E|-------------------------|-------------------------|
B|---5—x-4-x-5-x-4-x-5-5-x-|-------------------------|
G|---6-x-6-x-6-x-6-x-6-6-x-|-x-4-x-4-x-4-x-4-x-4-4-x-|
D|-x-6-x-6-x-6-x-6-x-6-6-x-|-x-6-x-6-x-6-x-6-x-6-6-x-|
A|-x-4-x-4-x-4-x-4-x-4-4-x-|-x-6-x-6-x-6-x-6-x-6-6-x-|
E|-------------------------|-x-4-x-4-x-4-x-4-x-4-4-x-|

   A                         B
E|-------------------------|---------------------------|
B|-------------------------|---------------------------|
G|-x-6-x-6-x-6-x-6-x-6-6-x-|-x-8-x-8-x-8-x-8-x-8-x-8-8-|
D|-x-7-x-7-x-7-x-7-x-7-7-x-|-x-9-x-9-x-9-x-9-x-9-x-9-9-|
A|-x-7-x-7-x-7-x-7-x-7-7-x-|-x-9-x-9-x-9-x-9-x-9-x-9-9-|
E|-x-5-x-5-x-5-x-5-x-5-5-x-|-x-7-x-7-x-7-x-7-x-7-x-7-7-|

Piyu plays:
   C#m   G#m   A   E-B   C#m   G#m   A                 B
E|--------------------------------------------------------|
B|--------------------------------------------------------|
G|--------------------------------------------------------|
D|-repeat it continuously as long as refrain is played----|
A|-7-6-7-6-7-6-7-6-7-6-7-6-7-6-7-6-7-6-7-6-7-6-7-6-7-6----|
E|-----------------------------------------------------7~-|

Outro.

Piyu plays to open the song:
                E                       C
E|------------|-----------------------------------------------|
B|------8~----|-7~----------------8~----7~--½-----------8~----|
G|------------|----------------------------4’‘~---------------|
D|-9h10----10-|----9-8-9~\---9h10----10------------9h10----10-|
A|------------|-----------------------------------------------|
E|------------|-----------------------------------------------|

   E                       C               E
E|---------------------------------------|---|
B|-7~----------------8~----7~------------|---|
G|----PM=----------------------½---------|---|
D|----9-8-9~\---9h10----10----4’‘~-5-/7~-|-2-|
A|---------------------------------------|-2-|
E|---------------------------------------|-0-|

Ari plays
   E (delay effect)   C (phase effect)   E (Delay Effect)
E|------------------|-------------------|-------------------|
B|------------------|-------------------|-------------------|
G|------------------|-5-----------------|-------------------|
D|------------------|-5-----------------|-------------------|
A|-PM==========-----|-3-----------------|-------------------|
E|-0-0-0-0-0-x------|-------------------|-0-x-0-0-0-x-------|

   C (phase effect)   E
E|------------------|---|
B|------------------|---|
G|-5----------------|---|
D|-5----------------|-2-|
A|-3----------------|-2-|
E|------------------|-0-|
Comments