Padi - Semua Tak Sama Chords & Tabs

 

Semua Tak Sama Chords & Tabs

Padi Chords & Tabs

Version: 1 Type: Tab 0 ratings
1 star 2 stars 3 stars 4 stars 5 stars
comments

Semua Tak Sama Tab

   
Judul: Semua Tak Sama
Artis: PADI
Album: Sesuatu Yang Tertunda

Tabbed by: Edy Zuraidy (Bedy_22@hotmail.com)

e |-----0------0------0------1------3------3------5------
B |-----1------0------1------1------0------3------6------
G |-----0------0------2------2------0------3------7------
D |-----2------2------2------3------0------5------7------
A |-----3------2------0------3------2------5------5------
E |------------0-------------1------3------3-------------
CHORD   C      Em     Am     F      G      Gm     Dm




C       Am            Em
Dalam benakku lama tertanam
       G            C
Sejuta bayangan dirimu
        Am          Em
Redup terasa cahaya hati
           G                     C
Mengingat apa yang telah kau berikan

        Am           Em          G
------|------------|-----------|------------|
------|------------|-----------|------------|
------|------------|-----------|------------|
------|------------|-----------|------------|
------|------------|-----------|------------|
------|------------|-----------|------------|

C        Am             Em
Waktu berjalan lambat mengiring
        G                C
Dalam titian takdir hidupku
        Am           Em
Cukup sudah aku tertahan
         G
Dalam persimpangan masa silamku




     F                                   C
                     PM...............|                  
PM..............|
     ^  ^  ^  ^  ^   ^  v                ^  ^  ^  ^  ^   ^  v
e 
|--1--1--1--1--1---1--1-------------|--0--0--0--0--0---0--0------------|
B 
|--1--1--1--1--1---1--1-------------|--1--1--1--1--1---1--1------------|
G 
|--2--2--2--2--2---2--2-------------|--0--0--0--0--0---0--0------------|
D 
|--3--3--3--3--3---3--3-------------|--2--2--2--2--2---2--2------------|
A 
|--3--3--3--3--3---3--3-------------|--3--3--3--3--3---3--3------------|
e 
|--1--1--1--1--1---1--1-------------|----------------------------------|

     Coba tuk me                         lawan getir yang terus kukecap

     Em                                  F               G
                     PM...............|
     ^  ^  ^  ^  ^   ^  v                ^  ^  ^  ^  ^   ^  ^  ^  ^  ^
e 
|--0--0--0--0--0---0--0-------------|--1--1--1--1--1---3--3--3--3--3---|
B 
|--0--0--0--0--0---0--0-------------|--1--1--1--1--1---0--0--0--0--0---|
G 
|--0--0--0--0--0---0--0-------------|--2--2--2--2--2---0--0--0--0--0---|
D 
|--2--2--2--2--2---2--2-------------|--3--3--3--3--3---0--0--0--0--0---|
A 
|--2--2--2--2--2---2--2-------------|--3--3--3--3--3---2--2--2--2--2---|
e 
|--0--0--0--0--0---0--0-------------|--1--1--1--1--1---3--3--3--3--3---|

     Meresap ke dalam                    relung sukmaku

     F                                   C
                     PM...............|                  
PM..............|
     ^  ^  ^  ^  ^   ^  v                ^  ^  ^  ^  ^   ^  v
e 
|--1--1--1--1--1---1--1-------------|--0--0--0--0--0---0--0------------|
B 
|--1--1--1--1--1---1--1-------------|--1--1--1--1--1---1--1------------|
G 
|--2--2--2--2--2---2--2-------------|--0--0--0--0--0---0--0------------|
D 
|--3--3--3--3--3---3--3-------------|--2--2--2--2--2---2--2------------|
A 
|--3--3--3--3--3---3--3-------------|--3--3--3--3--3---3--3------------|
e 
|--1--1--1--1--1---1--1-------------|----------------------------------|

     Coba tuk sing                       kirkan aroma nafas tubuhmu
[ Tab from: http://www.guitartabs.cc/tabs/p/padi/semua_tak_sama_tab.html ]
     Em                                  F               G
                     PM...............|
     ^  ^  ^  ^  ^   ^  v                ^  ^  ^  ^  ^   ^  ^  ^  ^  ^
e 
|--0--0--0--0--0---0--0-------------|--1--1--1--1--1---3--3--3--3--3---|
B 
|--0--0--0--0--0---0--0-------------|--1--1--1--1--1---3--3--3--3--3---|
G 
|--0--0--0--0--0---0--0-------------|--2--2--2--2--2---4--4--4--4--4---|
D 
|--2--2--2--2--2---2--2-------------|--3--3--3--3--3---5--5--5--5--5---|
A 
|--2--2--2--2--2---2--2-------------|--3--3--3--3--3---5--5--5--5--5---|
e 
|--0--0--0--0--0---0--0-------------|--1--1--1--1--1---3--3--3--3--3---|

     Mengalir mengisi                    laju darahku




C         CM7              Am
Semua tak sama, tak pernah sama
              F     G
Apa yang kusentuh, apa yang kukecup
C          Am                Gm
Sehangat pelukmu, selembut belaimu
        Dm                    F    G
Tak ada satupun yang mampu menjadi sepertimu



     C                  C
e |------------------|-------------------|
B |------------------|-------------------|
G |------------------|-------------------|
D |------------------|-------------------|
A |------------------|-------------------|
E |------------------|-------------------|

      F                                     C
e |--------------------------------|    
|------------------------------------|
B |---------8--10-12-13-12-10-8----|    
|------13-------15-------17-15-13----|
G |------9-------------------------| 2x 
|------------------------------------| 2x
D |---10-10-10-10-12-14-12-10-9----|    
|---14----14-15----15/17-17-15-14----|
A |--------------------------------|    
|------------------------------------|
E |--------------------------------|    
|------------------------------------|

      F                                     C
e |--------------------------------|    
|------------------------------------|
B |---------8--10-12-13-12-10-8----|    
|------13-------15-------17-15-13----|
G |------9-------------------------| 2x 
|------------------------------------| 2x
D |---10-10-10-10-12-14-12-10-9----|    
|---14----14-15----15/17-17-15-14----|
A |--------------------------------|    
|------------------------------------|
E |--------------------------------|    
|------------------------------------|

      G                                   G
e 
|-------------------------------------|------------------------------------|
B 
|-------------------------------------|------------------------------------|
G 
|---0-0-0-0-0-0-0-0--2-2-2-2-2-2-2-2--|-4-4-4-4-4-4-4-4--5-5-5-5-5-5-5-5---|
D 
|-------------------------------------|------------------------------------|
A 
|-------------------------------------|------------------------------------|
e 
|-------------------------------------|------------------------------------|

      G                                   G
e 
|------------------------------------|--------------------------------------------------|
B 
|------------------------------------|--------------------------------------------------|
G 
|--7-7-7-7-7-7-7-7--9-9-9-9-9-9-9-9--|-10-10-10-10-10-10-10-10--12-12-12-12-12-12-12-12-|
D 
|------------------------------------|--------------------------------------------------|
A 
|------------------------------------|--------------------------------------------------|
e 
|------------------------------------|--------------------------------------------------|

                ~~~~~~~~
e |---------------------|
B |---------------------|
G |---4-5--6/8--6-------| 8x
D |---------------------|
A |---------------------|
E |---------------------|


C      Am           Em         G
Apalah arti hidupku ini memapahku dalam ketiadaan
C        Am                 Em             G
Sgalanya luruh lemah tak bertumpu hanya bersandar pada dirimu
C        Am                 Em
Ku tak bisa (sungguh) tak bisa
          G
Mengganti dirimu dengan dirinya,


C                      Am
Sampai kapan kau terus bertahan
Gm                     Dm    F
Sampai kapan kau tetap tenggelam
C                      Am
Sampai kapan kau mesti terlepas
Gm        Dm          F   G     C
Buka mata dan hatimu, relakan semua


Notasi:

/	Slide
^	down-strum
v	up-strum
~~~~	Bending
PM....|	Palm Mute


- end of TAB


Comments