Padi - Menanti Sebuah Jawaban Chords & Tabs

 

Menanti Sebuah Jawaban Chords & Tabs

Padi Chords & Tabs

Version: 1 Type: Tab 0 ratings
1 star 2 stars 3 stars 4 stars 5 stars
comments

Menanti Sebuah Jawaban Tab

tuning - standard
------------|-------|---------10|--------------------------------------------|
------------|-------|---10~-8---|---8s10^~-10-8------------------------------|
--------4---|---7---|-7---------|--------------7^----------9-----------------|
-------5-5--|-5---5~|-----------|-----------------10-7-10----10-7-10---------|
---5-7------|-------|-----------|--------------------------------------------|
-8----------|-------|-----------|--------------------------------------------|
[ Tab from: http://www.guitartabs.cc/tabs/p/padi/menanti_sebuah_jawaban_tab.html ]
---------------------------------|-10s12-12-10-------------10s12-12-10-------------|
--------------10-8---------------|-------------13-12-10-12-------------13-12-13-12-|
-7--------7^------9-7--7^--------|-------------------------------------------------|
----10-7-10---------------7-10---|-------------------------------------------------|
---------------------------------|-------------------------------------------------|
---------------------------------|-------------------------------------------------|
-
---------------------------------------------------------------------------------|
-12-13-12-10--12-13-10-12-----10-8-10-12--10-12-10-12-8h10-10-10-10-10-10-8~-----|
---------------------------------------------------------------------------------|
---------------------------------------------------------------------------------|
---------------------------------------------------------------------------------|
---------------------------------------------------------------------------------|

i hope this tab is really work!!
feel free to email me at red.azazel@gmail.com
Comments