Pacifier - Run Chords & Tabs

 

Run Chords & Tabs

Pacifier Chords & Tabs

Version: 1 Type: Tab 0 ratings
1 star 2 stars 3 stars 4 stars 5 stars
comments

Run Tab

Run by Pacifier (with lyrics)

Tabbed by Bradiator (bradiator_the_ii@hotmail.com)
This is the authors own work, yibbida yibbida, blah blah, disclaimer.
Feel free to give it to all your friends, just don't claim it as your own,
unless you're actually a guitarist in Pacifier.  Even then, you didn't tab it
in this version, so just leave it.  

This is as good as I could get it on the first try...hope ya like it.  If this
tab doesn't display correctly (ie. the ends of the lines are all over the place),
just copy it into Notepad, or set the font to Courier New.

The whole song is in distortion, apart from the verse, which is clean.
p=pull off
h=hammer on
@=10th fret
#=12th fret
/=Slide

INTRO RIFF:
D------------------------------------
A------------------------------------
F------------------------------------
c-8888888888888883---3--3-3-333------
G-6666666555555553---3--3-3-333------
C----------------3---3--3-3-333------

D------------------------------------
A------------------------------------
F------------------------------------
c-8888888888888883---3--3-3-333------
G-6666666555555553---3--3-3-333------
C----------------3---3--3-3-333------

D------------------------------------
A------------------------------------
F------------------------------------
c-8888888888888888---8--8-8-888------
G-6666666555555558---8--8-8-888------
C----------------8---8--8-8-888------

D------------------------------------
A------------------------------------
F------------------------------------
c-66666551-p0h1h33-------------------
G-66666551-p0h1h33--(hold)-----------
C-66666551-p0h1h33-------------------

VERSE (clean): (x4)
D------------------------------------
A----6-----------6---------6---------
F---8--8---8----8--8---8-----8-------
c--------8---8-----------------------
G-8-----------8------8----8----------
C------------------------------------

On the rising tide
Rollercoaster ride
As the truth descends,
You chose not to ride again
[ Tab from: http://www.guitartabs.cc/tabs/p/pacifier/run_tab.html ]
CHORUS RIFF: (x3)
D------------------------------------
A------------------------------------
F------------------------------------
c-7777777888888888@@@@@@@#########---
G-7777777888888888@@@@@@@#########---
C-7777777888888888@@@@@@@#########---

So you run
Whatcha holdin on, holdin on to
Run
Life is goin on, all around you
Run
Whatcha holdin on, holdin on to

End Chorus:
D------------------------------------
A------------------------------------
F------------------------------------
c-66666551-p0h1h33-------------------
G-66666551-p0h1h33--(hold)-----------
C-66666551-p0h1h33-------------------

VERSE (x4)

This time, Guitar 2 Plays along with:

D------------------------------------
A--6---6---6---6---6---6---6---------
F--8---8---8---8---8---8---8---------
c------------------------------------
G------------------------------------
C------------------------------------

You still love to dance
Love to take a chance
But somethin's on inside, 
And the dreams, they got left behind

CHORUS RIFF(x4)

So you run
Whatcha holdin on, holdin on to
Run
Life is goin on, all around you
Run
Whatcha holdin on, holdin on to
Run
Look what's goin on, all around you

INTRO RIFF

Don't want to have to make a change
Wouldn't want to exaggerate the pain
Go runnin, back to the old ways

(Break - Ah-ohhhhhh)

CHORUS (x6)

So you run
Whatcha holdin on, holdin on to
Run
Life is goin on, all around you
Run
Whatcha holdin on, holdin on to
Run
Life is goin on, all around you
Whatcha holdin on, holdin on to
Run
Life is goin on, all around you...

D------------------------------------
A------------------------------------
F------------------------------------
c-66666551-p0h1h33---3--3-3-333------
G-66666551-p0h1h33---3--3-3-333------
C-66666551-p0h1h33---3--3-3-333------

D------------------------------------
A------------------------------------
F------------------------------------
c-66666551-p0h1h3-3------------------
G-66666551-p0h1h3-3-(hold)-----------
C-66666551-p0h1h3-3------------------

by Brady "Bradiator" Clarke (bradiator_the_ii@hotmail.com)
Comments