Pacifier - Home Again Chords & Tabs

 

Home Again Chords & Tabs

Pacifier Chords & Tabs

Version: 1 Type: Tab 0 ratings
1 star 2 stars 3 stars 4 stars 5 stars
comments

Home Again Tab

Standard Tuning

Intro
e|------------------------------------------|
B|-----x---------x------5-5-x-5-5-5-5-x-5-5-|
G|-5-5-x-5-5-5-5-x-5-5--5-5-x-5-5-5-5-x-5-5-|
D|-3-3-x-3-3-3-3-x-3-3--3-3-x-3-3-3-3-x-3-3-|
A|------------------------------------------|
E|------------------------------------------|
[ Tab from: http://www.guitartabs.cc/tabs/p/pacifier/home_again_tab.html ]
Chorus
e|-------------------------------------------------|
B|-------------------------------------------------|
G|------x-5-------x--5-----------x-----------x-----|
D|-7-7--x-3--7-7--x--3------7-7--x-5-5--7-7--x-5-5-|
A|-5-5--x----5-5--x---------5-5--x-3-3--5-5--x-3-3-|
E|-------------------------------------------------|


e|------------------------------------|   this goes over the intro riff
B|------------------------------------|
G|------------------------------------|  
D|---3---3---3---3-3-3-3-3-3-3--------|
A|-2---2-----3---3-3-3-3-3-3-3--------|
E|------------------------------------|
Comments