Pacifier - Comfort Me Chords & Tabs

 

Comfort Me Chords & Tabs

Pacifier Chords & Tabs

Version: 5 Type: Tab 0 ratings
1 star 2 stars 3 stars 4 stars 5 stars
comments

Comfort Me Tab

Pacifier - Comfort Me
tabbed by Marty

Tuning - Whole Tone down


Intro - 
Guitar 1
d|------------------------------------------------------------|
a|------------------------------------------------------------|
f|------------------------------------------------------------|
c|---2-2---*-*-*----------------------------------------------|
g|---2-2---*-*-*----------------------------------------------|
d|---0-0---*-*-*----------------------------------------------|

Then guitar 2 joins in with:
Guitar 2
d|------------------------------------------------------------|
a|------------------------------------------------------------|
f|------------------------------------------------------------|
c|---2-2----8-8-8-7---*-*-*-5/8-------------------------------|
g|---2-2----8-8-8-7---*-*-*-5/8-------------------------------|
d|---0-0----6-6-6-5---*-*-*-3/6-------------------------------|
[ Tab from: http://www.guitartabs.cc/tabs/p/pacifier/comfort_me_tab_ver_5.html ]
Then both guitars Play: this rocks!!!!!
d|------------------------------------------------------------|
a|------------------------------------------------------------|
f|------------------------------------------------------------|
c|---2-2----8-8-8-7---*-*-*-5/8-------------------------------|
g|---2-2----8-8-8-7---*-*-*-5/8-------------------------------|
d|---0-0----6-6-6-5---*-*-*-3/6-------------------------------|

Verse:
Not much guitar plays chord occasionaly.  LIsten to cd to know when.
d|------------------------------------------------------------|
a|------------------------------------------------------------|
f|------------------------------------------------------------|
c|---2--------------------------------------------------------|
g|---2--------------------------------------------------------|
d|---0--------------------------------------------------------|

Chorus:
d|---5-------3--------8--------10-----------------------------|
a|---5-------3--------8--------10-----------------------------|
f|---6-------4--------9--------11-----------------------------|
c|---7-------5--------10-------12-----------------------------|
g|---7-------5--------10-------12-----------------------------|
d|---5-------3--------8--------10-----------------------------|
Comments