Pacifier - Comfort Me Chords & Tabs

 

Comfort Me Chords & Tabs

Pacifier Chords & Tabs

Version: 4 Type: Tab 0 ratings
1 star 2 stars 3 stars 4 stars 5 stars
comments

Comfort Me Tab

Tuning - CGCFAD

Intro
-----------------------------------------
-----------------------------------------
-----------------------------------------
------(7)(7)(7)-------(7)(7)(7)(7)(7)----  x2
-----------------------------------------
--0-0------------0-0---------------------

-----------------------------------------
-----------------------------------------
-----------------------------------------
--0-0-(7)(7)(7)--0-0--(7)(7)(7)(7)(7)----  x4
--0-0------------0-0---------------------
--0-0------------0-0---------------------

On the 3rd time guitar two comes in with this
----------------------------------------
----------------------------------------
----------------------------------------  
----------------------------------------  x2
----------------------------------------
----0----0----3--6--5--x-x-x-5/6--------

Both guitars
----------------------------------------
----------------------------------------
----------------------------------------
----0----0----3--6--5--x-x-x-5/6--------  x2
----0----0----3--6--5--x-x-x-5/6--------
----0----0----3--6--5--x-x-x-5/6--------


Verse
----------------------------------------
----------------------------------------
----------------------------------------
---0----0-------------------------------
---0----0-------------------------------
---0----0-------------------------------
After this there is no guitar for the rest of the verse

Pre-Chorus
----------------------------------------
----------------------------------------
----------------------------------------
----0----0------------------------------  x4
----0----0------------------------------
----0----0------------------------------

Chorus
----------------------------------------
----------------------------------------
----------------------------------------
--5555555555555555-3333333333333333-----
--5555555555555555-3333333333333333-----
--5555555555555555-3333333333333333-----
[ Tab from: http://www.guitartabs.cc/tabs/p/pacifier/comfort_me_tab_ver_4.html ]
----------------------------------------
----------------------------------------
-------------------5555555555555555-----
--8888888888888888-5555555555555555-----
--8888888888888888-3333333333333333-----
--8888888888888888----------------------

----------------------------------------
----------------------------------------
----------------------------------------
--5555555555555555-3333333333333333-----
--5555555555555555-3333333333333333-----
--5555555555555555-3333333333333333-----

----------------------------------------
----------------------------------------
----------------------------------------
--8888888888888888-10-10-10-10-10-10----
--8888888888888888-10-10-10-10-10-10----
--8888888888888888-10-10-10-10-10-10----


Verse

Pre-Chorus

Chorus


Heavy Bit
----------------------------------------
----------------------------------------
----------------------------------------  
----0----0------------------------------  x2
----0----0------------------------------
----0----0----3--6--5--x-x-x-5/6--------

----------------------------------------
----------------------------------------
----------------------------------------
----0----0----3--6--5--x-x-x-5/6--------  x4
----0----0----3--6--5--x-x-x-5/6--------
12/-0----0----3--6--5--x-x-x-5/6--------


Chorus II
-------------------------------------------
-------------------------------------------
4-4-4-4-2-2/5-5-5-5-5-7-7-7-7-7-7\5-5-5-5-2
-------------------------------------------
-------------------------------------------  x2
-------------------------------------------
-------------------------------------------
This is from version 2, It's a lot closer than I could get it, 
it's clean and has a slight delay on it.


Chorus


Outro
-----------------------------------------
-----------------------------------------
-----------------------------------------
--0-0-(7)(7)(7)--0-0--(7)(7)(7)(7)(7)---- 
--0-0------------0-0---------------------
--0-0------------0-0---------------------

-----------------------------------------
-----------------------------------------
-----------------------------------------
--0-0-(7)(7)(7)--0-0---------------------  
--0-0------------0-0---------------------
--0-0------------0-0---------------------
Comments