Pacifier - Comfort Me Chords & Tabs

 

Comfort Me Chords & Tabs

Pacifier Chords & Tabs

Version: 2 Type: Tab 0 ratings
1 star 2 stars 3 stars 4 stars 5 stars
comments

Comfort Me Tab

I really dont know how good this tab is, cause i havent seen it anywhere else, i just tried to give
it a go! oh and i dunno if that harmonic is right either. If you have any corrections or something email me.

Drop D Tuning

Key

( ) - Harmonic
s - Slur

|--------------------------------------------------------------------|
|--------------------------------------------------------------------|
|--------------------------------------------------------------------|
|-0-0---------------0-0----------------------------------------------|
|-0-0---------------0-0----------------------------------------------|
|-0-0--(3)-(3)-(3)--0-0--(3)-(3)-(3)-(3)-(3)-(3)---------------------|

Intro Part 1 x6

|--------------------------------------------------------------------|
|--------------------------------------------------------------------|
|--------------------------------------------------------------------|
|-0-0--565-0-0-0-3-6-------------------------------------------------|
|-0-0--565-0-0-0-3-6-------------------------------------------------|
|-0-0--565-0-0-0-3-6-------------------------------------------------|

Intro Part 2 x4

|--------------------------------------------------------------------|
|--------------------------------------------------------------------|
|--------------------------------------------------------------------|
|-0-0----------------------------------------------------------------|
|-0-0----------------------------------------------------------------|
|-0-0----------------------------------------------------------------|

Verse 

|--------------------------------------------------------------------|
|--------------------------------------------------------------------|
|--------------------------------------------------------------------|
|-0-0----0-0----0-0----0-0-------------------------------------------|
|-0-0----0-0----0-0----0-0-------------------------------------------|
|-0-0----0-0----0-0----0-0-------------------------------------------|

"And i need..."

|--------------------------------------------------------------------|
|--------------------------------------------------------------------|
|----------------------------5555555---------------------------------|
|-5555555--3333333--8888888--5555555---------------------------------|
|-5555555--3333333--8888888--3333333---------------------------------|
|-5555555--3333333--8888888------------------------------------------|

Chorus x2

|--------------------------------------------------------------------|
|--------------------------------------------------------------------|
|--------------------------------------------------------------------|
|-0-0----------------------------------------------------------------|
|-0-0----------------------------------------------------------------|
|-0-0----------------------------------------------------------------|

Verse
[ Tab from: http://www.guitartabs.cc/tabs/p/pacifier/comfort_me_tab_ver_2.html ]
|--------------------------------------------------------------------|
|--------------------------------------------------------------------|
|--------------------------------------------------------------------|
|-0-0----0-0----0-0----0-0-------------------------------------------|
|-0-0----0-0----0-0----0-0-------------------------------------------|
|-0-0----0-0----0-0----0-0-------------------------------------------|

"They just need....."

|--------------------------------------------------------------------|
|--------------------------------------------------------------------|
|----------------------------5555555---------------------------------|
|-5555555--3333333--8888888--5555555---------------------------------|
|-5555555--3333333--8888888--3333333---------------------------------|
|-5555555--3333333--8888888------------------------------------------|

Chorus

|--------------------------------------------------------------------|
|--------------------------------------------------------------------|
|--------------------------------------------------------------------|
|-0-0--0-0-----------------------------------------------------------|
|-0-0--0-0-----------------------------------------------------------|
|-0-0--0-0-----------------------------------------------------------|

|--------------------------------------------------------------------|
|--------------------------------------------------------------------|
|--------------------------------------------------------------------|
|-0-0-565-0-0-0-36---------------------------------------------------|
|-0-0-565-0-0-0-36---------------------------------------------------|
|-0-0-565-0-0-0-36---------------------------------------------------|

"You're gonna bring the...." x4

|--------------------------------------------------------------------|
|--------------------------------------------------------------------|
|--4-4-4-4-2-2s5-5-5-5-5s7-7-7-7-7-7s5-5-5-5-2-----------------------|
|--------------------------------------------------------------------|
|--------------------------------------------------------------------|
|--------------------------------------------------------------------|

"What have we become..." x2

|--------------------------------------------------------------------|
|--------------------------------------------------------------------|
|----------------------------5555555---------------------------------|
|-5555555--3333333--8888888--5555555---------------------------------|
|-5555555--3333333--8888888--3333333---------------------------------|
|-5555555--3333333--8888888------------------------------------------|

Chorus x2

|--------------------------------------------------------------------|
|--------------------------------------------------------------------|
|--------------------------------------------------------------------|
|-0-0--------------0-0--------------------------0-0-------------0-0--|
|-0-0--------------0-0--------------------------0-0-------------0-0--|
|-0-0-(3)-(3)-(3)--0-0-(3)-(3)-(3)-(3)-(3)-(3)--0-0-(3)-(3)-(3)-0-0--|

Outro
Comments