Pacifier - Comfort Me Chords & Tabs

 

Comfort Me Chords & Tabs

Pacifier Chords & Tabs

Version: 1 Type: Tab 0 ratings
1 star 2 stars 3 stars 4 stars 5 stars
comments

Comfort Me Tab

Song: Comfort Me
Artist: Pacifier
Author: Pacifier
Album: Pacifier
Tabbed by raj



Ô = harmonic



Intro / Outro (Gtr I):

       Ô Ô Ô	      Ô Ô Ô Ô Ô Ô
|------7-7-7----|-----7-7-7-7-7-7-|
|------7-7-7----|-----7-7-7-7-7-7-|
|---------------|-----------------|
|-2-2-----------|-2-2-------------|
|-2-2-----------|-2-2-------------|
|-0-0-----------|-0-0-------------|



Intro (Gtr II):
|------------|-------------|
|------------|-------------|
|------------|-------------|
|-2-2-7/8-7--|-x-x-x-5/8---|
|-2-2-7/8-7--|-x-x-x-5/8---|
|-0-0-5/6-5--|-x-x-x-3/6---|


Verse (Gtr I + II):
|----------|-------|
|----------|-------|
|----------|-------|
|-2-2------|-2-2---|
|-2-2------|-2-2---|
|-0-0------|-0-0---|

[ Tab from: http://www.guitartabs.cc/tabs/p/pacifier/comfort_me_tab.html ]
Chorus (Gtr I + II):
|-----------------|----------------|
|-----------------|----------------|
|-----------------|-5-------7------|
|-7------5--------|-5-------7----5-|
|-7------5--------|-3-------5----5-|
|-5------3--------|--------------3-|


Middle 8:

|------------|-7-7---------| (x2)
|------------|-7-7---------|
|------------|-------------|
|-2-2-7/8-7--|-x-x-x-5/8---|
|-2-2-7/8-7--|-x-x-x-5/8---|
|-0-0-5/6-5--|-x-x-x-3/6---|


|------------|-------------|(x4)
|------------|-------------|
|------------|-------------|
|-2-2-7/8-7--|-x-x-x-5/8---|
|-2-2-7/8-7--|-x-x-x-5/8---|
|-0-0-5/6-5--|-x-x-x-3/6---|


SOrry Folks but i'm feeling pretty lazy, so im sure that ya can sort out the order of the bits n pieces.
any feedback (good or bad) send to: rajiv@shihad.zzn.com
cheers
Comments