Pacifier - Comfort Me Chords & Tabs

 

Comfort Me Chords & Tabs

Pacifier Chords & Tabs

Version: 1 Type: Bass Tab 0 ratings
1 star 2 stars 3 stars 4 stars 5 stars
comments

Comfort Me Bass Tab

   
Song: Comfort Me
Band: Pacifier
Album: Pacifier
Tuning: Drop D (G D A D)
Tabbed By: Adam Duncan (budweiser_frog69@hotmail.com)

x = Dead Note
~ = Hold Note/Let Ring

*Wait 2 bars*

INTRO

G|----------------------|
D|----------------------|  x4
A|----------------------|
D|-0-0--xxx-0-0-xxxxxx--|

G|-------------------|
D|-------------------|  x4
A|-------------------|
D|-0-0--6-5-xxx-5-6--|


VERSE

G|-------------|      |-------------------|
D|-------------|  x4  |-------------------|  x4
A|-------------|      |-------------------|
D|-0-0---0--0--|      |-0-0--6-5-xxx-5-6--|

[ Tab from: http://www.guitartabs.cc/tabs/p/pacifier/comfort_me_btab.html ]
CHORUS
                                          
G|-------------------------------------------|-----------------------------------------------|
D|-------------------------------------------|-----------------------------------------------|
A|---------------------111111111-33333333----|------------------------111111111-33333333-3~--|
E|-555555555-333333333---------------------3-|-55555555555-3333333333------------------------|


VERSE  x1

CHORUS  x1


G|------|--------|
D|------|--------|
A|------|--------|
E|-0-0--|--0--0--|

G|-------------------|
D|-------------------|  x4
A|-------------------|
D|-0-0--6-5-xxx-5-6--|


*Rest for 4 bars*


BRIDGE

G|-----------------------|
D|-5~~/-3~~--------------|
A|-------------1~~--3~~--|
D|-----------------------|


CHORUS  x1


END

G|----------------------|---------------||
D|----------------------|---------------||
A|----------------------|---------------||
D|-0-0--xxx-0-0-xxxxxx--|-0-0--xxx-0-0--||
Comments