Pace Mike - Unknown Man Chords & Tabs

 

Unknown Man Chords & Tabs

Pace Mike Chords & Tabs

Version: 1 Type: Tab 0 ratings
1 star 2 stars 3 stars 4 stars 5 stars
comments

Unknown Man Tab

Artist: Mike Pace
Title: Unknown Man
Tabbed by Mike Pace

E|--------------------------------------------------------
B|------13-----11----------11b13------------16--15—13-----
G|--12---------------12---------------------------------13
D|--------------------------------------------------------
A|--------------------------------------------------------
e|--------------------------------------------------------
[ Tab from: http://www.guitartabs.cc/tabs/p/pace_mike/unknown_man_tab.html ]
E|--------------------------------------------------------
B|16--15--13-----16--15--13----------15--13--12-----15--13
G|-----------13-------------13------------------12--------
D|--------------------------------------------------------
A|--------------------------------------------------------
e|--------------------------------------------------------

E|--------------------------------------------------------
B|--12-----15--13--12-------------------------------------
G|----12--------------12----------------------------------
D|--------------------------------------------------------
A|--------------------------------------------------------
e|--------------------------------------------------------


 I thought of this myself, haven’t had time to finish it. Send me your ideas. Mapgag@charter.net or mapgag@charter.com

Comments