P O D - Tribal Chords & Tabs

 

Tribal Chords & Tabs

P O D Chords & Tabs

Version: 1 Type: Tab 0 ratings
1 star 2 stars 3 stars 4 stars 5 stars
comments

Tribal Tab

OK.  This is an easy song to learn.  You simply have to tune your guitar into drop-d. That would make the tuning look like this...

E------------
B-----------
G-----------
D-----------
A-----------
D-----------
^
Note that the E string tunes DOWN to D.  That's pretty obvious though because if you tried to tune up that far then you would probably break more than just a string.

Anyways....
To get the right distortion you can either go out and buy a Korg AX1000G and set it on Warpigs like I do, or, you can fiddle around with a mixture of distortion and ambiance.  Mine is set on Big Fuzz distortion and an echo effect called Plate.  But, if you can get it to work with something else, GO FOR IT!!

Here it goes.

Intro: 
E---------------------------------------------------------------
B---------------------------------------------------------------
G--------------------------------------------------------------     < Repeat twice.
D-5-0--------5-0--------2------------------------------
A-5-0--------5-0--------2------------------------------
D-5-0--------5-0--------2----------/5/10\5\2/5/10\5-
[ Tab from: http://www.guitartabs.cc/tabs/p/p_o_d/tribal_tab.html ]
Chorus:
E--------------------------------------------------------------------------------------
B--------------------------------------------------------------------------------------
G--------------------------------------------------------------------------------------
D-5-0--------2-2-2-2-2-2-2-5-5-10-10-10-10-10-10-10-5-5-5-5-5-5-5-5 
A-5-0--------2-2-2-2-2-2-2-5-5-10-10-10-10-10-10-10-5-5-5-5-5-5-5-5
D-5-0--------2-2-2-2-2-2-2-5-5-10-10-10-10-10-10-10-5-5-5-5-5-5-5-5
^
Repeat 4 times.  After the first don't hit the 5-0.

Verse:
E------------------
B--------------------------2-2-2-2-3
G--------------------------------------3
D---5-0--------2---------------------
A---5-0--------2---------------------
D---5-0--------2---------------------
^
Only do this immediately after the Chorus/Intro

The rest of the verse goes like this.

E-------------2-2-2-2-3
B------3-----------------3
G-------------------------
D---2--------------------    < Repeat many times
A-------------------------
D-2 ----------------------



Bridge:
E---------------------------------------------------
B---------------------------------------------------
G---------------------------------------------------
D---2-0-2----5-0---0---0-2-0-2----5-0---0---0-
A---2-0-2----5-0---0---0-2-0-2----5-0---0---0-
D---2-0-2----5-0---0---0-2-0-2----5-0---0---0-
Comments