P O D - Southtown Chords & Tabs

 

Southtown Chords & Tabs

P O D Chords & Tabs

Version: 5 Type: Tab 0 ratings
1 star 2 stars 3 stars 4 stars 5 stars
comments

Southtown Tab

   
P.O.D
"SOUTHTOWN"

this is 100% correct
if u listen to the song carefully there are two guitars

Dropped-D tuning (D A D G B E)

Effect:     Flanger        

intro:
clean tone	Effect:     Flanger 

e----------|---------------------|------------------|------------------|
b----------|---------------------|------------------|------------------|
g----------|---------------------|------------------|------------------|
d--2-2-2-2-|---------------------|----------2-2-2-2-|------------------|
a--0-0-0-0-|-0-0-0-0-0--0-0-0-0--|-0-0-0-0--0-0-0-0-|-0-0-0-0--0-0-0-0-|
d----------|-3-3-3-3-3--3-3-3-3--|-3-3-3-3----------|-0-0-0-0--0-0-0-0-|

			(w/dist.)repeat 3x
			
e--------------------------|------------------------------|--------------
b--------------------------|------------------------------|--------------
g--------------------------|------------------------------|--------------
d-----------2-2-2-2----7---|--3-3-3--3--3--3-3-3--7-7-7-7-|-0-0-0--0-0---
a--0-0-0-0--0-0-0-0-0--7---|--3-3-3--3--3--3-3-3--7-7-7-7-|-0-0-0--0-0---
d--0-0-0-0----------0--7---'--3-3-3--3--3--3-3-3--7-7-7-7-'-0-0-0--0-0---
			pre-chorus
			(clean tone)GTRS1&2
			 =====    ==== ============
e-----------------|-------------------------------|----------------------
b-----------------|------6---6----5---5-----------|-5--------------------
g-----------------|------x---x----x---------------|----------------------
d--0-0-0--7-7-7-7-|------3---3----2---2-----------|-2--------------------
a--0-0-0--7-7-7-7-|-------------------------------|----------------------
d--0-0-0--7-7-7-7-|--0----------------------------|----------------------


chorus:
Rhy. fig. 1

(w/dist.)	repeat 4x

e-----------------------------|------------------------------------------|
b--------8-8-8-8-----8-8-8-8--|--------5-5-5-5--------5-5-5-5------------|
g--------x-x-x-x-----x-x-x-x--|--------x-x-x-x--------x-x-x-x------------|
d--3--3--5-5-5-5--3--5-5-5-5--|--0--0--2-2-2-2--0--0--2-2-2-2--3---------|
a--3--3-----------3-----------|--0--0-----------0--0-----------3---------|
d--3--3-----------3-----------|--0--0-----------0--0---------------------|

interlude				gtrs. 1&2 play rhy. fig. 2 (3x)
Rhy. fig. 2				gtr. 3 (clean tone)

(clean tone w/uni-vibe effect) 4x
						    ~~~~~    ~~~~~   ~~~~
e-----------------------------------|---------------------|---------------
b------5---6--------5---6-------5---|---------------------|---------------
g------x---x--------x---x-------x---|--10--9----9---7---7-|--5----9--7{---7
d------2---3--------2---3-------2---|---------------------|---------------
a-----------------------------------|---------------------|---------------
d--0------------0-----------0-------|---------------------|---------------

	 ~~~~    ~~~~~~~     ~~~~~~~     ~~~~~~~~~                 ~~~~
e------------------------------------------|----------------------------
b------------------------------------------|----------------------------
g--10----9---9---7------7----5------9----7-|--7----10---9-----9----7---7
d------------------------------------------|----------------------------
a------------------------------------------|----------------------------
d------------------------------------------|----------------------------
[ Tab from: http://www.guitartabs.cc/tabs/p/p_o_d/southtown_tab_ver_5.html ]
   ~~~~~~     ~~~~~~~~~~~      ~~~~~~     ~~~~~~~
e----------------------------------|------------------------------------
b----------------------------------|------------------------------------
g--5-----9----7{----7----10----9---|-9---7-----7---5------9----7-------
d----------------------------------|------------------------------------
a----------------------------------|------------------------------------
d----------------------------------|------------------------------------

Bridge:
gtrs.1&2 (w/dist.)repeat 4x		gtrs.1&2

e----------------------------------|------------------------------|--------
b----------------------------------|------------------------------|--------
G----------------------------------|------------------------------|--------
D--0--2--3--0----2--3----x--x---x--|--3-3-3--3--3--3-3-3--7-7-7-7-|--0-0-0-
A--0--2--3--0----2--3----x--x---x--|--3-3-3--3--3--3-3-3--7-7-7-7-|--0-0-0-
D--0--2--3--0----2--3----x--x---x--|--3-3-3--3--3--3-3-3--7-7-7-7-|--0-0-0-


e-----------------------|--------------------------------------------------
b-----------------------|---------------------------------------------------
g-----------------------|---------------------------------------------------
d--0--0--0-0-0--7-7-7-7-|-3-3-3--3--3--3-3-3-3--7-7-7-7--0-0-0--0--0--0-0-0-
a--0--0--0-0-0--7-7-7-7-|-3-3-3--3--3--3-3-3-3--7-7-7-7--0-0-0--0--0--0-0-0-
d--0--0--0-0-0--7-7-7-7-|-3-3-3--3--3--3-3-3-3--7-7-7-7--0-0-0--0--0--0-0-0-

Coda
			bend 1/2
e---------------------------|-----------------------
b------------------------8--|-----------------------
g------------------------x--|-----------------------
d--3-3-3--3--3--3-3-3-3--5--|--0-0-0--0--0-0-0------
a--3-3-3--3--3--3-3-3-3-----|--0-0-0--0--0-0-0------
d--3-3-3--3--3--3-3-3-3-----|--0-0-0--0--0-0-0------

LYRICS:

Welcome to hard times, back again like it's never been, for the first
time, it seems to mess with my head, So when I realize what it takes 
can I relate, with whatever, but never, will ou drive me to hate, Could
be the next guy that you take before i wake, Now I lay me down to sleep 
eyes tight when I pray This here is real life, Circumstances make you 
think, should I be counting my lessings the next second my eyes blink
Here in the Southtown, (hey)you know that kids don't play, Put it down
in the streets, Will I see another day, if i make back this time, gots
to hold what is mine, and thank God that I made it alive, Here in the 
Southtown, (hey) you know that kids don't play, put it down in the 
streets, Will I see another day if i make it back this time, Gots to 
hold what is mine, and thank God that I made it alive, here in the 
Southtown, ain't gots to be (like this)(4x times),like this ain't gots
to be like this(4x), don't wanna throw up my fist, ain't gots to be like
this, don't wanna throw my fist, i must resist, don't wanna throw up my
fist, ain't gots to be like this, don't wanna throw up my fist, i must 
resist, don't wanna throw my fist, ain't gots to be like this, don't
wanna throw up my fist i must resist,ain't gots to be (like this)(4x), 
like this ain't gots to be like this (4x), Like this,(here in the 
southtown) like this, Here in the Southtown, (hey) you know that kids
don't play, put it down in the streets will i see another day if i make
it back this time, gots to hold what is mine, and thank god that i made
it alive, Here in the Southtown





Comments