P O D - Southtown Chords & Tabs

 

Southtown Chords & Tabs

P O D Chords & Tabs

Version: 4 Type: Tab 1 rating
1 star 2 stars 3 stars 4 stars 5 stars
comments

Southtown Tab

#-----------------------------------------------------------------------------#
#-- File created with Instab - http://www.pconline.com/~smcarey/instab.html --#
#-----------------------------------------------------------------------------#

Author/Artist: POD
Title: Southtowm
Transcribed by: Aaron Stark
Email: MolsonG88

------------------------------------------------------------------------------
------------------------------------------------------------------------------
------33333333----------------------------------------------------------------
-5555-33333333----------------------------------------------------------------
-5555-11111111----------------------------------------------------------------
-3333-------------------------------------------------------------------------
 Intro: Clean                                                                 
[ Tab from: http://www.guitartabs.cc/tabs/p/p_o_d/southtown_tab_ver_4.html ]
------------------------------------------------------------------------------
------------------------------------------------------------------------------
------------555---------------------------------------------------------------
-555-5-5555-555---------------------------------------------------------------
-555-5-5555-333---------------------------------------------------------------
-333-3-3333-------------------------------------------------------------------
 Verse  : Distortion                                                          

------------------------------------------------------------------------------
------------------------------------------------------------------------------
------------------------------------------------------------------------------
------------------------------------------------------------------------------
------------------------------------------------------------------------------
-0-3-2------------------------------------------------------------------------
 Interlude: Clean                                                             

------------------------------------------------------------------------------
------------------------------------------------------------------------------
------------------------------------------------------------------------------
-55-5-5-5-5-------------------------------------------------------------------
-55---------------------------------------------------------------------------
-33---------------------------------------------------------------------------
 Chourus: Distortion                                                          

Comments