P O D - Set Your Eyes To Zion Chords & Tabs

 

Set Your Eyes To Zion Chords & Tabs

P O D Chords & Tabs

Version: 1 Type: Tab 0 ratings
1 star 2 stars 3 stars 4 stars 5 stars
comments

Set Your Eyes To Zion Tab

Intro:
E---------------------------------------------------
B---------------------------------------------------
G---------------------------------------------------
D--------7/9\7/9/7\9--------5/7\5/7--------8/10\8/10
A-----7------------------5--------------8-----------
E--5------------------3--------------6--------------
                                          

I believe Marcos uses a delay pedal, but it has the same effect a if
you slide from fret to fret. Marcos uses a delay pedal through out the
hole song.

Chorus:
E--x--5--x--5--x--5--x--5--x--5--x--5--x--5--x--5--x--1--x--1--x--1--x--1
B--x--3--x--3--x--3--x--3--x--5--x--5--x--5--x--5--x--3--x--3--x--3--x--3
G--x--3--x--3--x--3--x--3--x--5--x--5--x--5--x--5--x--2--x--2--x--2--x--2
D------------------------------------------------------------------------
A------------------------------------------------------------------------
E------------------------------------------------------------------------

Again just choke once with and on the up stroke play the fret numbers with
a delay pedal, otherwise play what  have written down.
[ Tab from: http://www.guitartabs.cc/tabs/p/p_o_d/set_your_eyes_to_zion_tab.html ]
Guitar Solo:
E-5--5--5----5--5--5--3--1--0--1--3--3--1h3p1p0----5--5--5^----5--5--5--3--1--0--1--3--3--1h3p1p0
B------------------------------------------------------------------------------------------------
G------------------------------------------------------------------------------------------------
D------------------------------------------------------------------------------------------------
A------------------------------------------------------------------------------------------------
E------------------------------------------------------------------------------------------------

E------------------------------------------------------------------------------
B--3--6--5--6--3--5------------------------------------------------------------
G--------------------5--3--2--2h3p2--2h3p2--2h3p2------------------------------
D--------------------------------------------------5--3--2--5--3--2--2--3------
A--------------------------------------------------------------------------3--5
E------------------------------------------------------------------------------

That's it, e-mail me if you have any questions or requests!! DuckonAMission@aol.com
Comments